AllChordsTabs.com

The Maccabees - Latchmere (First Version) Chords and Tabs


Artists:
Chords and Tabs » T » The Maccabees - Latchmere (First Version)

The Maccabees - Latchmere (First Version)

The Maccabees - Latchmere (First Version) Chords / Tabs

The Maccabees - Latchmere First Version: chords and tabs for the song. Watch chords and tablatures for all songs of the singer (group) The Maccabees. Other chords and tabs for the "Latchmere" can find at the bottom of the page.

-=-=-=-=-=-=-=-=-=-=-=-=-=-=-
The Maccabees - Latchmere
-=-=-=-=-=-=-=-=-=-=-=-=-=-=-

Brilliant band! this song is great.

Theres alot of other guitar parts in this song which i cant figure out
but ive made it so you can play it solo. enjoy.

Tuning - Standard EADGBe

Intro:
e|--10-10---10-10--8--8---5-5---xx--5-5--8--8--5--|
B|--12-12---12-12--8--8---5-5---xx--5-5--8--8--7--|
G|--12-12---12-12--9--9---5-5---xx--5-5--9--9--7--|
D|--12-12---12-12--10-10--7-7---xx--7-7--10-10-7--|  Repeat x4
A|--10-10---10-10--10-10--7-7---xx--7-7--10-10-5--|
E|--x--x----x--x---8--8---5-5---xx--5-5--8--8--x--|

Verse:
G                     C         Am
Swimming, Swimming, Swimming, Swimming
C    G
Stayin in your lanes
G                     C         Am
Swimming, Swimming, Swimming, Swimming
C    G
Just Stayin in your lanes

G                   C     Am
No bombing and no heavy petting
C    G
So just stay in your lane
G                  C     Am
No Boming and no heavy petting
C    Am
So just stay in your lane.


Prechorus:
G|---------------------------------------------------------------|
D|---------------------------------------------------------------|
A|---------------------------------------------------------------|
E|-3-3-3-3-3-3-3-3-3-3-3-3-3-3-3-3/8-8-8-8-8-8-8-8-8-8-8-8-8-8-8-| play x2
'Madames and monsieurs please return to your cubicles'

G
Madames and monsieurs please return to your cubicles
C
Madames and monsieurs please return to your cubicles
G
Madames and monsieurs please return to your cubicles
C
Madames and monsieurs please return to your cubicles
D         C          Am   G
Latchmere's got a wave machine


Chorus:
G              C     Am
ooh ooh ooh oohooh ooooh
C     G
ooh ooh ooh oohooh ooooh
G              C     Am
ooh ooh ooh oohooh ooooh
C
ooh ooh ooh oohooh

Verse 2:
(play this baseline until half way through second verse then switch
to chords as shown below, this is how i play it solo)
G|---------------------------------------------------------------|
D|---------------------------------------------------------------|
A|---------------------------------------------------------------|
E|-3-3-3-3-3-3-3-3-3-3-3-3/8-8-8-8-5-5-5-5-5-5-5-5-5-5-5/8-8-8-8-|

'Comin out of the changing room
And absolutely f**k all had changed
So I stayed in your lanes'

Comin out of the changing room
C           Am
And absolutely f**k all had changed
C    G
So I’ll stay in your lanes
C     Am
Speedo, speed boy, Speedo, speed boy
C    G
Speedo, speed boy So stay in your lanes.

Speedo, speed boy, Speedo, speed boy
Speedo, speed boy, Speedo, speed boy
Speedo, speed boy, Speedo, speed boy
Speedo, speed boy, Speedo, speed boy

Prechorus x1
Chorus x1
Intro x2


Outro:
D       C         Am   G
Latchmere's got a wave machine

----------------------
End, comments welcome
----------------------

LiveInternet