AllChordsTabs.com

The Dead Weather - Cop And Go (First Version) Chords and Tabs


Artists:
Chords and Tabs » T » The Dead Weather - Cop And Go (First Version)

The Dead Weather - Cop And Go (First Version)

The Dead Weather - Cop And Go (First Version) Chords / Tabs

The Dead Weather - Cop And Go First Version: chords and tabs for the song. Watch chords and tablatures for all songs of the singer (group) The Dead Weather. Other chords and tabs for the "Cop And Go " can find at the bottom of the page.

Intro:

e|----------6----------------------------------------------------------------|
B|----5-----8b---------------------------------------------------------------|
G|----7b-----------7br-5------7br-5------------------------------------------|
D|-----------------------7----------7----------------------------------------|
A|---------------------------------------------------------------------------|
E|---------------------------------------------------------------------------|


Verse:

e|---------------------------------------------------------------------------|
B|---------------------------------------------------------------------------|
G|---7br-5-------------------------------------------------------------------|
D|---------7-----7-7-7-7-----------------------------------------------------| x5
A|---------------7-7-7-7-----------------------------------------------------|
E|---------------5-5-5-5-----------------------------------------------------|


Chorus:
*=Let ring

e|---------------------------------------------------------------------------|
B|---------------------------------------------------------------------------|
G|---7br-5-------------------------------------------------------------------|
D|---------7-----7-10-10-7---7-10-10-7---------------------------------------|
A|---------------7-10-10-7---7-10-10-7---------------------------------------|
E|---------------5-8--8--5---5-8--8--5---------------------------------------|
*           *
e|---------------------------------------------------------------------------|
B|---------------------------------------------------------------------------|
G|---------------------------------------------------------------------------|
D|---7-10-10-7-10-10-7-10-10-7-----------------------------------------------|
A|---7-10-10-7-10-10-7-10-10-7-----------------------------------------------|
E|---5-8--8--5-8--8--5-8--8--5-----------------------------------------------|
*

Verse:

e|---------------------------------------------------------------------------|
B|---------------------------------------------------------------------------|
G|---7br-5-----7br-5---------------------------------------------------------|
D|---------7---------7-------------------------------------------------------|
A|---------------------------------------------------------------------------|
E|---------------------------------------------------------------------------|

e|---------------------------------------------------------------------------|
B|---------------------------------------------------------------------------|
G|---7br-5-------------------------------------------------------------------|
D|---------7-----7-7-7-7-----------------------------------------------------| x5
A|---------------7-7-7-7-----------------------------------------------------|
E|---------------5-5-5-5-----------------------------------------------------|


Chorus:
*=Let ring

e|---------------------------------------------------------------------------|
B|---------------------------------------------------------------------------|
G|---7br-5-------------------------------------------------------------------|
D|---------7-----7-10-10-7---7-10-10-7---7-10-10-7---7-10-10-12--------------|
A|---------------7-10-10-7---7-10-10-7---7-10-10-7---7-10-10-12--------------|
E|---------------5-8--8--5---5-8--8--5---5-8--8--5---5-8--8--10--------------|
*           *           *           *

Bridge:

e|---------------------------------------------------------------------------|
B|---------------------------------------------------------------------------|
G|---7br-5-------------------------------------------------------------------|
D|---------7-----7-7-7-7-----------------------------------------------------| x4
A|---------------7-7-7-7-----------------------------------------------------|
E|---------------5-5-5-5-----------------------------------------------------|

e|---------------------------------------------------------------------------|
B|---------------------------------------------------------------------------|
G|---7br-5----7br-5----------------------------------------------------------|
D|------------------7---7-7-7-7----------------------------------------------| x3
A|----------------------7-7-7-7----------------------------------------------|
E|----------------------5-5-5-5----------------------------------------------|


Chorus:
*=Let ring

e|---------------------------------------------------------------------------|
B|---------------------------------------------------------------------------|
G|---7br-5---7br-5-----------------------------------------------------------|
D|-----------------7--7-10-10-7---7-10-10-7----------------------------------|
A|--------------------7-10-10-7---7-10-10-7----------------------------------|
E|--------------------5-8--8--5---5-8--8--5----------------------------------|
*           *
e|---------------------------------------------------------------------------|
B|---------------------------------------------------------------------------|
G|---------------------------------------------------------------------------|
D|---7-10-10-7-10-10-7-10-10-7-----------------------------------------------|
A|---7-10-10-7-10-10-7-10-10-7-----------------------------------------------|
E|---5-8--8--5-8--8--5-8--8--5-----------------------------------------------|
*

Final Solo:

x4              x7                 x1                    x3
e|-----------|-------------------|-----------------5-|-----------------------|
B|-----------|-------------------|-----------------5-|-----------------------|
G|---7br-5---|---7br-5---7br-5---|---7br-5---7br-5---|---7br-5---7br-5-------|
D|---------7-|-----------------7-|-------------------|-----------------7-----|
A|-----------|-------------------|-------------------|-----------------------|
E|-----------|-------------------|-------------------|-----------------------|

e|---------------------------------------------------------------------------|
B|---------------------------------------------------------------------------|
G|---7br-5-------------------------------------------------------------------|
D|----------7-10-10-7--------------------------------------------------------|
A|----------7-10-10-7--------------------------------------------------------|
E|----------5-8--8--5--------------------------------------------------------|
*

LiveInternet