AllChordsTabs.com

The Maccabees - Marks To Prove It (Second Version) Chords and Tabs


Artists:
Chords and Tabs » T » The Maccabees - Marks To Prove It (Second Version)

The Maccabees - Marks To Prove It (Second Version)

The Maccabees - Marks To Prove It (Second Version) Chords / Tabs

The Maccabees - Marks To Prove It Second Version: chords and tabs for the song. Watch chords and tablatures for all songs of the singer (group) The Maccabees. Other chords and tabs for the "Marks To Prove It " can find at the bottom of the page.

Intro
G
Guitar 2 (Clean)
E|---------------------------------|
B|---------------------------------|
G|---------------------------------|
D|---------------------------------|
A|----------Palm Mute--------------|
E|-3-3-3-3-3-3-3-3-3-3-3-3-3-3-3-3-|
|Guitar 3                         |
E|---------------------------------|
B|-3~~-----------------------------|
G|-4~~-----------------------------|
D|-5~~-----------------------------|
A|-5~~-----------------------------|
E|-3~~-----------------------------|
G
Guitar 1
E|---------------------------------|
B|---------------------------------|
G|---------------------------------|
D|---3-----2-----------------------|
A|-----2-3---2-3-3-3-3-3-3-3-2-0---|
E|-------------------------------3-|
|Guitar 2                         |
E|---------------------------------|
B|---------------------------------|
G|---------------------------------|
D|---------------------------------|
A|------------Palm Mute------------|
E|-3-3-3-3-3-3-3-3-3-3-3-3-3-3-3-3-|
|Guitar 3                         |
E|---------------------------------|
B|-3~~-----------------------------|
G|-4~~-----------------------------|
D|-5~~-----------------------------|
A|-5~~-----------------------------|
E|-3~~-----------------------------|
G             F
Guitar 1
E|---------------------------------|
B|---------------------------------|
G|---------------------------------|
D|---3-----2-----------------------|
A|-----2-3---2-3-3-3-3-3-3-3-2-0---|
E|-------------------------------3-|
|Guitar 2                         |
E|---------------------------------|
B|---------------------------------|
G|---------------------------------|
D|---------------------------------|
A|------------Palm Mute------------|
E|-3-3-3-3-3-3-3-1-1-1-1-1-1-1-1-1-|
|Guitar 3                         |
E|---------------------------------|
B|-3~~-----------------------------|
G|-4~~-----------------------------|
D|-5~~-----------------------------|
A|-5~~-----------------------------|
E|-3~~-----------------------------|

Intro/Build Up
Guitar 1
E|---------------------------------|
B|---------------------------------|
G|---------------------------------|
D|---3-----2-----------------------|
A|-----2-3---2-3-3-3-3-3-3-3-2-0---|
E|-------------------------------3-|
|Guitar 2                         |
E|---------------------------------|
B|---------------------------------|
G|---------------------------------|
D|---------------------------------|
A|-5-5-5-5-5-5-5-5-5-5-5-5-5-5-5-5-|
E|-3-3-3-3-3-3-3-3-3-3-3-3-3-3-3-3-|
|Guitar 3                         |
E|-/15*-/15*-/15*-/15*-------------|
B|-/15*-/15*-/15*-/15*-etc---------|
G|-/16*-/16*-/16*-/16*-------------|
D|-/17*-/17*-/17*-/17*-------------|
A|---------------------------------|
E|---------------------------------|

Guitar 1
E|---------------------------------|
B|---------------------------------|
G|---------------------------------|
D|---3-----2-----------------------|
A|-----2-3---2-3-3-3-3-3-3-3-2-0---|
E|-------------------------------3-|
|Guitar 2                         |
E|---------------------------------|
B|---------------------------------|
G|---------------------------------|
D|---------------------------------|
A|-5-5-5-5-5-5-5-5-5-5-5-5-5-5-5-5-|
E|-3-3-3-3-3-3-3-3-3-3-3-3-3-3-3-3-|
|Guitar 3                         |
E|-/15*-/15*-/15*-/15*-13-13-13-13-|
B|-/15*-/15*-/15*-/15*-13-13-13-13-|
G|-/16*-/16*-/16*-/16*-14-14-14-14-|
D|-/17*-/17*-/17*-/17*-15-15-15-15-|
A|---------------------------------|
E|---------------------------------|

Then, all guitars play variation of G for 3 bars?
E|---| |-3-| |---|
B|-3-| |-3-| |---|
G|-4-| |-4-| |---|
D|-5-| |-5-| |-5-|
A|-5-| |-5-| |-5-|
E|-3-| |---| |-3-|
?and F for 1 bar.
E|---| |-1-| |---|
B|-1-| |-1-| |---|
G|-2-| |-2-| |---|
D|-3-| |-3-| |-3-|
A|-3-| |-3-| |-3-|
E|-1-| |---| |-1-|

Verse
Guitar 2 (Clean)
E|-------------------------------------------------|
B|-------------------------------------------------|
G|-------------------------------------------------|
D|-------------------------------------------------|
A|-5-5-5-5-5-5-5-5-5-5-5-5-5-5-5-5-5-5-5-5-3-3-3-3-|
E|-3-3-3-3-3-3-3-3-3-3-3-3-3-3-3-3-3-3-3-3-1-1-1-1-|
|Guitar 3
E|-------------------------------------------------|
B|-------------------------------------------------|
G|-4-4-4-4-4-4-4-4-4-4-4-4-4-4-4-4-4-4-4-4-2-2-2-2-|
D|-5-5-5-5-5-5-5-5-5-5-5-5-5-5-5-5-5-5-5-5-3-3-3-3-|
A|-5-5-5-5-5-5-5-5-5-5-5-5-5-5-5-5-5-5-5-5-3-3-3-3-|
E|-------------------Palm Muted--------------------|

Guitar 1 Plays Intro riff second time around.

Chorus

Dm     Em

All guitars play variations of Dm?
E|---| |----| |-10-|
B|-6-| |-10-| |-10-|
G|-7-| |-10-| |-10-|
D|-7-| |-12-| |-12-|
A|-5-| |-12-| |----|
E|---| |-10-| |----|

?and Em.
E|---| |----| |-12-|
B|-8-| |-12-| |-12-|
G|-9-| |-12-| |-12-|
D|-9-| |-14-| |-14-|
A|-7-| |-14-| |----|
E|---| |-12-| |----|

Tempo Change
G     G     G    F

Verse
Chorus


Interlude
Guitar 3
E|-----------------------------------|
B|---20-19-18---------18-------------|
G|------------21-20~-----21-20-19-18~|
|Guitar 2                           |
A|--------Palm Muted-----------------|
E|-3-3-3-3-3-3-3-3-3-3-3-3-3-3-3-3-3-|

Guitar 3
E|---20-19-18-17-16~-----------------|
B|--------------------20-19-18-------|
G|-----------------------------21-20~|
|Guitar 2
A|----------Palm Muted---------------|
E|-3-3-3-3-3-3-3-3-3-1-1-1-1-1-1-1-1-|

LiveInternet