AllChordsTabs.com

Lincoln Brewster - Surrender (First Version) Chords and Tabs


Artists:
Chords and Tabs » L » Lincoln Brewster - Surrender (First Version)

Lincoln Brewster - Surrender (First Version)

Lincoln Brewster - Surrender (First Version) Chords / Tabs

Lincoln Brewster - Surrender First Version: chords and tabs for the song. Watch chords and tablatures for all songs of the singer (group) Lincoln Brewster. Other chords and tabs for the "Surrender" can find at the bottom of the page.

Surrender Live
Lincoln Brewster

Alright so were gonna tackle Brewster's beautiful
master-piece "Surrender". it has an awesome blues-y
feel and sound and im gonna give you guys the intro
and solo tab with just chords for the verse's and chorus's.

So with all of the this your gonna want to turn your drive
down to 50%, bass at whatever level you like, treb at 70%
and mid at 90%. I like to use a Brit classic JCM 800 watt
head thru a Vox ac30 cab on my Floor POD plus 2.0 with a Boss
blues driver. With the settings I just gave out. and I like a
Strat in the neck pick-up position for this song



INTRO
!!!!LOTS OF REVERB AND DELAY!!!!
(split into 3 sections)
I simplefied the Intro a lil bit cause it will take up way
too much room on here, but you will know what to do once you
hear the CD version and also look at this tab.

Section 1
e]---------------------------------------|
B]---------------------------------------|
G]---------------------------------------|
D]---5h7-7-------9-7-5-------------------|
A]-7-------------------7~-5/-------------|
E]---------------------------------------|


Section 2 (super fast)
(and double all notes once you hit the 'D' string)

e]-------------------------------------------------|
B]-------------------------------------------------|
G]-----------------------7-9-9-7-------------------|
D]---------------5-7-7-9---------9-7-7-5-----------|
A]-5h7~---5-7------------------------------7-5~----|
E]-------------------------------------------------|


Section 3

e]--------------------------------------|
B]------------------9-10----------------|
G]--------------7-9------9-7~-----------|
D]---5-7~---7-9----------------9-7-5----|
A]-7--------------------------------7~--|
E]--------------------------------------|


Chorus and Verses chords are... E,D,G,C,G,E,D every time


SOLO(5 sections) it doesnt do him justice but it sounds good

Section 1
e]---------------------------------------------|
B]-8s10-8-7-7h8p7------------------------------|
G]----------------9p7-7h9-7h9-7--7h9-9---------|
D]-------------------------------------9p7p5---|
A]-------------------------------------------7-|
E]---------------------------------------------|

Section 2
e]---------------------------------------------|
B]---------------------------------------------|
G]---------------4h7p4-------------------------|
D]-5h7-7b8r7-5h7-------7p5---5h7---------------|
A]-------------------------7-------5s7s5-------|
E]---------------------------------------5s3s7-|

Section 3
e]-------15-14----14b15r14-----------------------------|
B]----17-------17----------15-------15-----------------|
G]-16-------------------------14h16----14--------------|
D]----------------------------------------17-16--12s14-|
A]-----------------------------------------------------|
E]-----------------------------------------------------|


Section 4
e]------------------------------------|
B]------------------8-10--8-----------|
G]--------------7h9---------7p9-------|
D]-9p7p5-7p5-s9-----------------------|
A]------------------------------------|
E]------------------------------------|


Section 5
e]--------7-----------------------------------------------------|
B]-----8--8-10p8----8------8-8----------------------------------|
G]-----7---------9--7h9----7-7--------------------------12~-12~-|
D]-7s9-------------------9------9p7---7-------------------------|
A]----------------------------------9---7-10s12-10~-10~---------|
E]--------------------------------------------------------------|

LiveInternet