AllChordsTabs.com

Pierce The Veil - Bulletproof Love (First Version) Chords and Tabs


Artists:
Chords and Tabs » P » Pierce The Veil - Bulletproof Love (First Version)

Pierce The Veil - Bulletproof Love (First Version)

Pierce The Veil - Bulletproof Love (First Version) Chords / Tabs

Pierce The Veil - Bulletproof Love First Version: chords and tabs for the song. Watch chords and tablatures for all songs of the singer (group) Pierce The Veil. Other chords and tabs for the "Bulletproof Love" can find at the bottom of the page.

[Intro]

e|----------------6------------------|               e|----------------6-------------------------|
B|--------------------9--7--6--7-----|               B|----------------------9--7--7--7----------|
G|-----------6-----------------------| [x3] next >   G|-----------6------------------------------|
D|-------8---------------------------|               D|-------8----------------------------------|
A|---9-------------------------------|               A|---9--------------------------------------|
E|-----------------------------------|               E|------------------------------------------|

then it goes...

e|-----------6--------------|              e|-----------6---------------------|
B|--------7-----9--7--6--7--|              B|--------7-----9--7--6--7---------|
G|-----8--------------------|  [x2] >      G|--6--6---------------------------|
D|--9-----------------------|              D|---------------------------------|
A|--------------------------|              A|---------------------------------|
E|--------------------------|              E|---------------------------------|

[Last Variation]

e|------------7--6-----------|
B|---------7--------9--7--6--|
G|--6--6---------------------|
D|---------------------------|
A|---------------------------|
E|---------------------------|


[Verse]

*Hit in pairs! Still palm muting!*

e|--7-7--6-6--------------------6-6-----------------------------------------------|
B|------------9-9---7-7---9-9---------9-9----7-7---6-6---7-7---6-6----------------|
G|-------------------------------------------------------------------8-8---6-6~---|
D|--------------------------------------------------------------------------------|
A|--------------------------------------------------------------------------------|
E|--------------------------------------------------------------------------------|

*Release Palm Mute*

e|------------------------------------------|
B|-----------6------------------------------|
G|----------------6-------------------------| (Pick this sequence about 8 times.)
D|-------8----------------------------------|
A|---9--------------------------------------|
E|------------------------------------------|


[Chorus]

e|--------------------------------------------------------------------------------------------------------|
B|--------------------------------------------------------------------------------------------------------|
G|--------------------------------------------------------------------------------------------------------|
D|--4-4-4-4---------------------6-6-6-6--3-3-3-3---------------------3-3-3-3---4-4-4-4--------------------|
A|-----------4-4-4-4------------------------------4-4-4-4------------------------------4-4-4-4------------|
E|-------------------6-6-6-6-------------------------------6-6-6-6-------------------------------6-6-6-6--|

e|---------------------------------------|    e|-------14----------14----------13----------13------| riff
B|---------------------------------------|    B|----14----14----14----14----14----14----14----14---| played
G|---------------------------------------|    G|-15----------15----------15----------15------------| in
D|--6-6-6-6---3-3-3-3--------------------|    D|---------------------------------------------------| the
A|---------------------4-4-4-4-----------|    A|---------------------------------------------------| chorus
E|------------------------------6-6-6-6--|    E|---------------------------------------------------| [x2]


[Play this again]

e|----------------6------------------|               e|----------------6-------------------------|
B|--------------------9--7--6--7-----|               B|----------------------9--7--7--7----------|
G|-----------6-----------------------| [x3] next >   G|-----------6------------------------------|
D|-------8---------------------------|               D|-------8----------------------------------|
A|---9-------------------------------|               A|---9--------------------------------------|
E|-----------------------------------|               E|------------------------------------------|

then it goes...

e|-----------6--------------|              e|-----------6---------------------|
B|--------7-----9--7--6--7--|              B|--------7-----9--7--6--7---------|
G|-----8--------------------|  [x2] >      G|--6--6---------------------------|
D|--9-----------------------|              D|---------------------------------|
A|--------------------------|              A|---------------------------------|
E|--------------------------|              E|---------------------------------|


e|------------7--6-----------|
B|---------7--------9--7--6--|
G|--6--6---------------------|
D|---------------------------|
A|---------------------------|
E|---------------------------|

e|----------------6------------------|               e|----------------6-------------------------|
B|--------------------9--7--6--7-----|               B|----------------------9--7--7--7----------|
G|-----------6-----------------------| [x3] next >   G|-----------6------------------------------|
D|-------8---------------------------|               D|-------8----------------------------------|
A|---9-------------------------------|               A|---9--------------------------------------|
E|-----------------------------------|               E|------------------------------------------|

then it goes...

e|-----------6--------------|              e|-----------6---------------------|
B|--------7-----9--7--6--7--|              B|--------7-----9--7--6--7---------|
G|-----8--------------------|  [x2] >      G|--6--6---------------------------|
D|--9-----------------------|              D|---------------------------------|
A|--------------------------|              A|---------------------------------|
E|--------------------------|              E|---------------------------------|


[Play Chorus Again]

(Tony's Part played at near the end of the chorus *Remember capo on 2nd fret!)

e|-0-0--9p0--7p0---6p0--7p0--6p0--4p0--6p0-----|
B|---------------------------------------------|  [x4]
G|---------------------------------------------|
D|---------------------------------------------|
A|---------------------------------------------|
E|---------------------------------------------|

e|-0-0--9p0--7p0--6p0--4p0--6p0--7p0--6p0--4p0---------|
B|-----------------------------------------------------|
G|-----------------------------------------------------|
D|-----------------------------------------------------|
A|-----------------------------------------------------|
E|-----------------------------------------------------|


[Riffs]

e|------------------------------|   e|-------14----------14----------13----------13---|
B|---------------------------9--|   B|----14----14----14----14----14----14----14------|
G|----------------8--10--11-----| > G|15----------15----------15----------15----------|
D|------8--9--11----------------|   D|------------------------------------------------|
A|--11--------------------------|   A|------------------------------------------------|
E|------------------------------|   E|------------------------------------------------|

(Reeeaalllyyy long riff played palm muted!)

e|--------------------------------------------------------------------------------------|
B|--------------------------------------------------------------------------------------|
G|--------------------------------------------------------------------------------------|
D|------8---9-8----8---8------9-8-----------------------------------------------------8-|
A|-9-11---9-----11---8---11-9-----11-9----11h13-11----9-11-9-------9h11-9-----8-9-11----|
E|-------------------------------------11----------11---------13-9--------11------------|

e|---------------------------------------------------------------------------|
B|---------------------------------------------------------------------------|
G|---------------------------------------------------------------------------|
D|------8---11-8----8----8---9---8--------------------------------------------|
A|-9-11---9------11---8----11-8---11-9-8----11h13----11-13-11----------------|
E|---------------------------------------11-------11----------11-10----------|

*I do not the exact part for this little bridge/riff but it's close. ^^)

e|----14-------13------11------9--------6-------------|
B|-11----119-----97-----76-----64-------43-------|
G|----------------------------------------------------|
D|----------------------------------------------------|
A|----------------------------------------------------|
E|----------------------------------------------------|

e|----14------13-------11-------9------/1413---------|
B|-11----119-----97------76-----6-----------------|
G|----------------------------------------------------|
D|----------------------------------------------------|
A|----------------------------------------------------|
E|----------------------------------------------------|

e|----14-------13------11------9--------6-------------|
B|-11----119-----97-----76-----64-------43-------|
G|----------------------------------------------------|
D|----------------------------------------------------|
A|----------------------------------------------------|
E|----------------------------------------------------|

e|--9---------|
B|-----76----|
G|------------|
D|------------| [x5]
A|------------|
E|------------|

e|----14-------13------11------9--------6-------------|
B|-11----119-----97-----76-----64-------43-------|
G|----------------------------------------------------|
D|----------------------------------------------------|
A|----------------------------------------------------|
E|----------------------------------------------------|

e|----14------13-------11-------9------/1413---------|
B|-11----119-----97------76-----6-----------------|
G|----------------------------------------------------|
D|----------------------------------------------------|
A|----------------------------------------------------|
E|----------------------------------------------------|

e|----14-------13------11------9--------6-------------|
B|-11----119-----97-----76-----64-------43-------|
G|----------------------------------------------------|
D|----------------------------------------------------|
A|----------------------------------------------------|
E|----------------------------------------------------|

e|-------14----------14----------13----------13------------|
B|----14----14----14----14----14----14----14----13---------|
G|-15----------15----------15----------15------------------|
D|---------------------------------------------------------|
A|---------------------------------------------------------|
E|---------------------------------------------------------|


[Chorus Again]

e|----------------------------------------------------------------------------------------------------------|
B|----------------------------------------------------------------------------------------------------------|
G|----------------------------------------------------------------------------------------------------------|
D|-4-4-4-4-----------------6-6-6-6-3-3-3-3-----------------3-3-3-3-4-4-4-4-----------------6-6-6-6----------|
A|---------4-4-4-4-------------------------4-4-4-4-------------------------4-4-4-4------------------4-4-4-4-|
E|-----------------6-6-6-6-------------------------6-6-6-6-------------------------6-6-6-6------------------|

e|---------|
B|---------|
G|---------|
D|---------|
A|---------|
E|-6-6-6-6-|

e|-0-0--9p0-7p0-6p0-7p0-6p0-4p0-6p0-------|
B|----------------------------------------|
G|----------------------------------------|
D|----------------------------------------|   [x3]
A|----------------------------------------|
E|----------------------------------------|

e|-0-0--9p0-7p0-6p0-4p0-6p0-7p0-6p0-4p0---|
B|----------------------------------------|
G|----------------------------------------|
D|----------------------------------------|
A|----------------------------------------|
E|----------------------------------------|

e|-------------------------|
B|--------------------9----|
G|------------8-10-11------|
D|-----8-9-11--------------| [x2]
A|--11---------------------|
E|-------------------------|


[Outro]
(When strumming these octaves, slide up/down to the next one. Also down strumming is mostly preferable.)

e|------|        --------|            ------|
B|------|        --------|            ------|
G|--11--|        ---13---|            -10---|
D|--x---| [x3]   ---x----| [x4]       -x----| [x10]
A|--9---|        ---11---|            -8----|
E|------|        --------|            ------|

Hit this sequence about 4 times then the optional chord you could hit if you want is

e|-------------|
B|-------------|
G|-----9---9---|
D|-----9---9---|
A|-----7---7---|
E|-------------|

LiveInternet