AllChordsTabs.com

Mads Langer - This Is How Love Is Made (First Version) Chords and Tabs


Artists:
Chords and Tabs » M » Mads Langer - This Is How Love Is Made (First Version)

Mads Langer - This Is How Love Is Made (First Version)

Mads Langer - This Is How Love Is Made (First Version) Chords / Tabs

Mads Langer - This Is How Love Is Made First Version: chords and tabs for the song. Watch chords and tablatures for all songs of the singer (group) Mads Langer. Other chords and tabs for the "This Is How Love Is Made" can find at the bottom of the page.

____________________________
/ Mads Langer               /  Oohf, this song is just pure sex in every
/ This Is How Love Is Made  /  possible aspect! It's a great little song
/ Mads Langer               /  for acoustic guitar practice. I really hope
/___________________________/  the tab isn't too hard to see through :)


Intro:
3/4 shuffled
A7          D/A     A7
+     +      +          +     +     +       +     +     +
|-----------------------|-------------------|-5-----x---x-x-----|
|-----------------------|-5-----------7-----|-5-----x---x-x-----|
|-----------------------|-5h6---6-----7-----|-5h6---x---x-x-----|
|-----7-7~-----9b10r9-7-|-5-----5---5-7-----|-5-----x---x-x-----|
|-7/9--------9----------|-0-----0---0-0---0-|-0-----x---x-x-----|
|-----------------------|-------------------|-------x---x-x-----|



Verse:
A      C#m7     Bm7    E7sus4
||--------|-------|-------|--------||
||o-------|-------|-------|-------o||
||--------|---9---|---7---|---7----|| (strum the chords and
||---11---|---9---|---7---|---7----||  slightly Palm Mute them)
||o---0---|--11---|---9---|---7---o||
||--------|---9---|---7---|---0----||
"Take off your make-up
Take down you hair
'Cause I want to see everything
Leave nothing to spare


Bm7/11   C#m7     Em7     Em7
|---0---|---0---|---0---|---0---|
|---0---|---0---|---0---|---0---|
|---7---|---9---|--12---|--12---|
|---7---|---9---|--12---|--12---|
|---x---|---x---|---x---|---x---|
|---7---|---9---|--12---|--12---|
'Cause all that is you is beautiful"




Interlude:
A7          D/A     A7
+     +     +       +     +     +
|-------------------|-------x---x-------|
|-------------7-----|-5-----x---x-------|
|-5h6---------7-----|-5h6---x---x-------|
|-5-----5-----7-----|-5-----x---x-----7-|
|-0-----0---0-0---0-|-0-----x---x-7/9---|
|-------------------|-------x---x-------|
"yeah ...



Verse:
Similar to previous.

"From your toes to your lips
With my fingertips
I'll cover every inch of you
Every single bit
And all that is you is beautiful"



Chorus:
A                     A
+     +     +         +     +     +
||------------x---------|-----------x---------|
||o-----------x---------|-----------x---------|
||--2-----2---x---------|-2-----2---x---------|
||--2h4---2---x---------|-2h4---2---x---------|
||o-0-----0---x-2b3r2-0-|-0-----0---x-2b3r2-0-|
||------------x---------|-----------x---------|
"No I     don't want  no  an-   gel   I
Some  one   who   is  real  and   I     can


F#m7/11             F#m7/11
+     +     +       +     +     +
|-------0-----0-----|-------0-----0------||
|-------0-----0-----|-------0-----0-----o||
|-------2---2-2---2-|-------2---2-2---2--||
|-------2---2-2---2-|-------2---2-2---2--||
|-------x---x-x---x-|-------x---x-x---x-o||
|-2-----2---2-2---2-|-0h2-2-2---2-2---2--||
just want you,
hold on   to,                   You just lay


Bm7/11              C#m7                E7sus4
+     +     +       +     +     +       +     +     +
|-0-----0-----0-----|-0-----0-----0-----|-0-----0-----0-----|
|-0-----0-----0-----|-0-----0-----0-----|-0-----0-----0-----|
|-7-----7-----7-----|-9-----9-----9-----|-7-----7---7-7---7-|
|-7-----7-----7-----|-9-----9-----9-----|-7-----7---7-7---7-|
|-x-----x-----x-----|-x-----x-----x-----|-7-----7---7-7---7-|
|-7-----7-----7-----|-9-----9-----9-----|-0-----0---0-0---0-|
back  and   let my      hands lead you  all the way,


A7          D/A     A7
+     +     +          +     +     +       +     +     +
|----------------------|-------------------|-5-----------------|
|----------------------|-5-----5-----7-----|-5-----------------|
|----------------------|-5h6---6---6-7-----|-5h6---------------|
|-----7-7-----9b10r9-7-|-5-----5---5-7-----|-5-----------------|
|-7/9-------9----------|-0-----0---0-0---0-|-0-----------------|
|----------------------|-------------------|-------------------|
This is how love is    made"



Verse:
Similar to previous.

"'Cause You are worth savouring
Taking real slow
From every angle
Above and below
'Cause all that is you is so beautiful"



Chorus:
Similar to previous, except for the last line:

Bm7/11              A7
+     +     +          +     +     +       +     +     +
|----------------------|-0-----0-----0-----|-------x---x-x-----|
|----------------------|-0-----0-----0-----|-5-----x---x-x-----|
|----------------------|-7---7-7---7-7---7-|-5h6---x---x-x-----|
|-----7-7-----9b10r9-7-|-7---7-7---7-7---7-|-5-----x---x-x-----|
|-7/9-------9----------|-x---x-x---x-x---x-|-0-----x---x-x-----|
|----------------------|-7---7-7---7-7---7-|-------x---x-x-----|
This is how love is    made,                     We're crossing the



Bridge:
E7sus4              A7
+     +     +       +     +     +
|-0-----0-----0-----|-------------x---x-|
|-0-----0-----0-----|-5-----------x---x-|
|-7-----7---7-7---7-|-5h6---------x---x-|
|-7-----7---7-7---7-|-5-----------x---x-|
|-7-----7---7-7---7-|-0-----------x---x-|
|-0-----0---0-0---0-|-------------x---x-|
line,                         We're taking our

E7sus4              A7
+     +     +       +     +     +
|-0-----0---0-0---0-|-------x-----x---x-|
|-0-----0---0-0---0-|-5-----x-----x---x-|
|-7-----7---7-7---7-|-5h6---x-----x---x-|
|-7-----7---7-7---7-|-5-----x-----x---x-|
|-7-----7---7-7---7-|-0-----x-----x---x-|
|-0-----0---0-0---0-|-------x-----x---x-|
time,

E7sus4              E7sus4             E7sus4
+     +     +       +     +     +       break
|-0-----0---0-0---0-|-0-----0---0-0---0-|-0----:
|-0-----0---0-0---0-|-0-----0---0-0---0-|-0----:   [: = freetime]
|-7-----7---7-7---7-|-7-----7---7-7---7-|-7----:
|-7-----7---7-7---7-|-7-----7---7-7---7-|-7----:
|-7-----7---7-7---7-|-7-----7---7-7---7-|-7----:
|-0-----0---0-0---0-|-0-----0---0-0---0-|-0----:
n' de- ba dæ  -ba...                  No, I just wanna touch you baby!



3rd Chorus
Similar to the first Chorus.




Jon Sebastian Frederiksen - 23rd /October /09

LiveInternet