AllChordsTabs.com

Marianas Trench - Vertigo (First Version) Chords and Tabs


Artists:
Chords and Tabs » M » Marianas Trench - Vertigo (First Version)

Marianas Trench - Vertigo (First Version)

Marianas Trench - Vertigo (First Version) Chords / Tabs

Marianas Trench - Vertigo First Version: chords and tabs for the song. Watch chords and tablatures for all songs of the singer (group) Marianas Trench. Other chords and tabs for the "Vertigo" can find at the bottom of the page.

MARIANAS TRENCH - Vertigo

Tuning: DROP D (dADGBE)




INTRO
E|----------|----------|
B|----------|----------|
G|---7---7--|---9---9--|
D|--7-7-7-7-|--9-9-9-9-| x4
A|-5--------|-7--------|
d|----------|----------|


VERSE
E|-----------|
B|-----------|
G|-44--------|
D|-44-444-00-| x4
A|-22-444-00-|
d|----444-00-|



BRIDGE
E|----------------------------------------------------------------|
B|----------------------------------------------------------------|
G|----------------------------44444444----------------------------|
D|-55555555-55555555-44444444-44444444-55555555-55555555-44444444-|
A|-55555555-55555555-44444444-22222222-55555555-55555555-44444444-|
d|-55555555-55555555-44444444----------55555555-55555555-44444444-|



CHORUS
E|----------|    |-----------------|
B|----------|    |-----------------|
G|----------|    |-----------------|
D|-09-09-0--| x8 |-09-09-99-444-00-|
A|-09-09-0--|    |-09-09-99-444-00-|
d|-09-09-0--|    |-09-09-99-444-00-|



VERSE
E|-----------|-xxx-----------|--------------|-----------|
B|-----------|-xxx-----------|--------------|-----------|
G|-44--------|-xxx-44--------|-44-----------|-44--------|
D|-44-444-00-|-xxx-44-444-00-|-44-444-00----|-44-444-00-|
A|-22-444-00-|-xxx-22-444-00-|-22-444-00-12-|-22-444-00-|
d|----444-00-|-xxx----444-00-|----444-00----|----444-00-|



BRIDGE
E|----------------------------------------------------------------|
B|----------------------------------------------------------------|
G|----------------------------44444444----------------------------|
D|-55555555-55555555-44444444-44444444-55555555-55555555-44444444-|
A|-55555555-55555555-44444444-22222222-55555555-55555555-44444444-|
d|-55555555-55555555-44444444----------55555555-55555555-44444444-|



CHORUS
E|----------|
B|----------|
G|----------|
D|-09-09-0--| x8
A|-09-09-0--|
d|-09-09-0--|


END OF CHORUS 2
Guitar 1
E|----------|----------|
B|----------|----------|
G|---7---7--|---9---9--|
D|--7-7-7-7-|--9-9-9-9-| x4
A|-5--------|-7--------|
d|----------|----------|

Guitar 2
E|----------|----------|
B|----------|----------|
G|-55555555-|-77777777-| x4
D|-55555555-|-77777777-|
d|-55555555-|-77777777-|


EOC CONT'D
Both Guitars
E|----------|----------|
B|----------|----------|
G|-55555555-|-77777777-| x4
D|-55555555-|-77777777-|
d|-55555555-|-77777777-|



Guitar 1
E|---|
B|---|
G|-0-|
D|-0-| (let ring)
d|-0-|

Guitar 2 (very quiet)
E|-------------|
B|-------------|
G|-------------|
D|---0-3-0-3/5-|
d|-0-----------|



END CHORUS
E|----------|
B|----------|
G|----------|
D|-09-09-0--| x8
A|-09-09-0--|
d|-09-09-0--|

E|---------|---------|
B|---------|---------|
G|---------|---------|
D|-05-05-0-|-09-09-5-|x8
A|-05-05-0-|-09-09-5-|
d|-05-05-0-|-09-09-5-|

E|---|
B|---|
G|-0-|
D|-0-|
d|-0-|

LiveInternet