AllChordsTabs.com

Kina Grannis - Love Anyway (First Version) Chords and Tabs


Artists:
Chords and Tabs » K » Kina Grannis - Love Anyway (First Version)

Kina Grannis - Love Anyway (First Version)

Kina Grannis - Love Anyway (First Version) Chords / Tabs

Kina Grannis - Love Anyway First Version: chords and tabs for the song. Watch chords and tablatures for all songs of the singer (group) Kina Grannis. Other chords and tabs for the "Love Anyway" can find at the bottom of the page.

[Intro]
E
e|----------------------------------------------------|
B|------0-----0-----0-----0---------------------------|
G|----1-----1-----1-----1-----------------------------|
D|--2-----2-----2-----2-------------------------------|
A|----------------------------------------------------|
E|----------------------------------------------------|

[Verse 1]
E                       C#m
e|----------------------------------------------------|
B|------0-----0-----0-----0---------------------------|
G|----1-----1-----1-----1--------6-----6-----6-----4--|
D|--2-----2-----2-----2--------6-----6-----6-----6----|
A|---------------------------4-----4-----4-----4------|
E|----------------------------------------------------|
I woke to a bitter scene  the whole world was crumbling

A           B            E
e|----------------------------------------------------|
B|------2-----0------------------0-----0-----0-----0--|
G|----2-----2-------4-----4----1-----1-----1-----1----|
D|----------------4-----4----2-----2-----2-----2------|
A|--0-----0-----2-----2-------------------------------|
E|----------------------------------------------------|
I cried to the guileless moon

E                       C#m
e|----------------------------------------------------|
B|------0-----0-----0-----0---------------------------|
G|----1-----1-----1-----1--------6-----6-----6-----4--|
D|--2-----2-----2-----2--------6-----6-----6-----6----|
A|---------------------------4-----4-----4-----4------|
E|----------------------------------------------------|
The wolves came to comfort me and just as I fell asleep

A           B            E
e|----------------------------------------------------|
B|------2-----0------------------0-----0-----0-----0--|
G|----2-----2-------4-----4----1-----1-----1-----1----|
D|----------------4-----4----2-----2-----2-----2------|
A|--0-----0-----2-----2-------------------------------|
E|----------------------------------------------------|
I heard they were crying, too         If we’re all

[Chorus]
C#m                      G#m
e|----------------------------------------------------|
B|----------------------------------------------------|
G|------6-----6-----6-----4------4-----4-----4-----4--|
D|----6-----6-----6-----6------6-----6-----6-----6----|
A|--4-----4-----4-----4-------------------------------|
E|---------------------------4-----4-----4-----4------|
hurting these days                    Maybe it’s

A                        B
e|----------------------------------------------------|
B|------2-----2-----2-----0---------------------------|
G|----2-----2-----2-----2--------4-----4-----4-----4--|
D|-----------------------------4-----4-----4-----4----|
A|--0-----0-----0-----0------2-----2-----2-----2------|
E|----------------------------------------------------|
time we find a way

E     G#m   C#m   B      A
e|----------------------------------------------------|
B|------0-----0-----0-----0------2-----2--------------|
G|----1-----1-----1-----1------2-----2----------------|
D|--2-----1-------------------------------------------|
A|--------------4-----2------0-----0-----0------------|
E|----------------------------------------------------|
To love, love, love, love, love            anyway

[Interlude]
E     G#m   C#m   B      A
e|----------------------------------------------------|
B|------0-----0-----0-----0------2-----2-----2-----2--|
G|----1-----1-----1-----1------2-----2-----2-----2----|
D|--2-----1-------------------------------------------|
A|--------------4-----2------0-----0-----0-----0------|
E|----------------------------------------------------|

[Verse 2]
E                       C#m
e|--4-0---------4-0----------4-0---------4-0----------|
B|------0-----0-----0-----0---------------------------|
G|----1-----1-----1-----1--------6-----6-----6-----4--|
D|--2-----2-----2-----2--------6-----6-----6-----6----|
A|---------------------------4-----4-----4-----4------|
E|----------------------------------------------------|
As dew drops and morning fell the sun came and wished me well

A           B            E
e|--4-0---------4-0----------4-0---------4-0----------|
B|------2-----0------------------0-----0-----0-----0--|
G|----2-----2-------4-----4----1-----1-----1-----1----|
D|----------------4-----4----2-----2-----2-----2------|
A|--0-----0-----2-----2-------------------------------|
E|----------------------------------------------------|
And so I was on my way

E                       C#m
e|--4-0---------4-0----------4-0---------4-0----------|
B|------0-----0-----0-----0---------------------------|
G|----1-----1-----1-----1--------6-----6-----6-----4--|
D|--2-----2-----2-----2--------6-----6-----6-----6----|
A|---------------------------4-----4-----4-----4------|
E|----------------------------------------------------|
I sat in the broken weeds and wove them into tapestries

A           B            E
e|--4-0---------4-0----------4-0---------4-0----------|
B|------2-----0------------------0-----0-----0-----0--|
G|----2-----2-------4-----4----1-----1-----1-----1----|
D|----------------4-----4----2-----2-----2-----2------|
A|--0-----0-----2-----2-------------------------------|
E|----------------------------------------------------|
And watched as the remnants swayed    Feeling that

[Chorus]
C#m                      G#m
e|--4-0---------4-0----------4-0----------------------|
B|----------------------------------------------------|
G|------6-----6-----6-----4------4-----4-----4-----4--|
D|----6-----6-----6-----6------6-----6-----6-----6----|
A|--4-----4-----4-----4-------------------------------|
E|---------------------------4-----4-----4-----4------|
We are all the same                  All of one

A                        B
e|--4-0---------4-0----------7-----------7------------|
B|------2-----2-----2-----0----4-----------4----------|
G|----2-----2-----2-----2--------4-----4-----4-----4--|
D|-----------------------------4-----4-----4-----4----|
A|--0-----0-----0-----0------2-----2-----2-----2------|
E|----------------------------------------------------|
Heartbeat, different names                  And we can

E     G#m   C#m   B      A
^     ^     ^     ^
e|--4-----2-----0-------------------------------------|
B|------0-----0-----0-4---0--2---2-----2--------------|
G|----1-----1-----1-----1------2-----2----------------|
D|--2-----1-------------------------------------------|
A|--------------4-----2------0-----0-----0------------|
E|----------------------------------------------------|
love, love, love, love, love              anyway

[Interlude]
E     G#m   C#m   B      A
e|--4-----2-----0-------------------------------------|
B|------0-----0-----0-4---0--2---2-----2-----2-----2--|
G|----1-----1-----1-----1------2-----2-----2-----2----|
D|--2-----1-------------------------------------------|
A|--------------4-----2------0-----0-----0-----0------|
E|----------------------------------------------------|

[Bridge]
A2
e|------0-----0-----0-----0------0-----0-----0-----0--|
B|----0-----0-----0-----0------0-----0-----0-----0----|
G|----------------------------------------------------|
D|----------------------------------------------------|
A|--0-----0-----0-----0------0-----0-----0-----0------|
E|----------------------------------------------------|
How do we get             how do we get, get to the other

C#m
e|------0-----0-----0-----0------0-----0-----0-----0--|
B|------0-----0-----0-----0------0-----0-----0-----0--|
G|----------------------------------------------------|
D|----6-----6-----6-----6------6-----6-----6-----6----|
A|--4-----4-----4-----4------4-----4-----4-----4------|
E|----------------------------------------------------|
side of it? How do we get, how do we get, how do we get through the

A2
e|------0-----0-----0-----0------0-----0-----0-----0--|
B|----0-----0-----0-----0------0-----0-----0-----0----|
G|----------------------------------------------------|
D|----------------------------------------------------|
A|--0-----0-----0-----0------0-----0-----0-----0------|
E|----------------------------------------------------|
fight in it? How do we get, how do we get, how do we get to the

B
e|------0-----0-----0-----0------0-----0-----0-----0--|
B|------0-----0-----0-----0------0-----0-----0-----0--|
G|----------------------------------------------------|
D|----4-----4-----4-----4------4-----4-----4-----4----|
A|--2-----2-----2-----2------2-----2-----2-----2------|
E|----------------------------------------------------|
light in it? How do we get?     Oooh oooh oooh

A2
e|------0-----0-----0-----0------0-----0-----0-----0--|
B|----0-----0-----0-----0------0-----0-----0-----0----|
G|----------------------------------------------------|
D|----------------------------------------------------|
A|--0-----0-----0-----0------0-----0-----0-----0------|
E|----------------------------------------------------|
How do we get             how do we get, get to the other

C#m
e|------0-----0-----0-----0------0-----0-----0-----0--|
B|------0-----0-----0-----0------0-----0-----0-----0--|
G|----------------------------------------------------|
D|----6-----6-----6-----6------6-----6-----6-----6----|
A|--4-----4-----4-----4------4-----4-----4-----4------|
E|----------------------------------------------------|
side of it? How do we get, how do we get, how do we get through the

B
e|------0-----0-----0-----0------0-----0-----0-----0--|
B|------0-----0-----0-----0------0-----0-----0-----0--|
G|----------------------------------------------------|
D|----4-----4-----4-----4------4-----4-----4-----4----|
A|--2-----2-----2-----2------2-----2-----2-----2------|
E|----------------------------------------------------|
fight in it? How do we get, how do we get, how do we get to the

A2
e|------0-----0-----0-----0------0-----0-----0-----0--|
B|----0-----0-----0-----0------0-----0-----0-----0----|
G|----------------------------------------------------|
D|----------------------------------------------------|
A|--0-----0-----0-----0------0-----0-----0-----0------|
E|----------------------------------------------------|
light in it?

[Outro]
Ano5                        G#m
e|----------------------------------------------------|
B|-----------------------------------------4----------|
G|----------------------------------------------------|
D|----------------------------------------------------|
A|-------------4--------------------------------------|
E|-------------5---------------------------4----------|
If we can make it through the gray

Ano5                         B
e|----------------------------------------------------|
B|-------------2---------------------------4----------|
G|----------------------------------------------------|
D|----------------------------------------------------|
A|-----------------------------------------2----------|
E|-------------5--------------------------------------|
Maybe we'll find a better way               If we

E     G#m   C#m   B      A
e|-------------------------------------0--------------|
B|------0-----0-----0-----0------2--------------------|
G|----1-----1-----1-----1------2-----2----------------|
D|--2-----1-------------------------------------------|
A|--------------4-----2------0-----0-----0------------|
E|----------------------------------------------------|
Love, love, love, love, love               anyway

E     G#m   C#m   B      A
e|-------------------------------------0-----------0--|
B|------0-----0-----0-----0------2-----------2--------|
G|----1-----1-----1-----1------2-----2-----2-----2----|
D|--2-----1-------------------------------------------|
A|--------------4-----2------0-----0-----0-----0------|
E|----------------------------------------------------|

LiveInternet