AllChordsTabs.com

Dance Gavin Dance - Doom Gloom (First Version) Chords and Tabs


Artists:
Chords and Tabs » D » Dance Gavin Dance - Doom Gloom (First Version)

Dance Gavin Dance - Doom Gloom (First Version)

Dance Gavin Dance - Doom Gloom (First Version) Chords / Tabs

Dance Gavin Dance - Doom Gloom First Version: chords and tabs for the song. Watch chords and tablatures for all songs of the singer (group) Dance Gavin Dance. Other chords and tabs for the "Doom Gloom " can find at the bottom of the page.

[Intro]

with phaser and volume pedal
e|----4-------4-------4-----4----------|
B|------2-------2-------------2--------|
G|--2-------2-------2-----2------------|
D|4-------4-------4-----4--------------|
A|-------------------------------------|
D|-------------------------------------|


[Verse]

e|-4---(x36)----------------------4---(x36)-------------------------10-(x9)---|
B|-2------------12-(x9)--9--(x9)--2---------14-(x9)-12-(x9)-9--(x9)-----------|
G|-2------------11-------11-------2---------11------11------11------11--------|
D|-4------------12-------12-------4---------12------12------12------12--------|
A|----------------------------------------------------------------------------|
D|----------------------------------------------------------------------------|

e|-4---(x36)----------------------4---(x36)-----------------10------12-(x9)---|
B|-2------------12-(x9)--9--(x9)--2---------14-(x9)-12-(x9)----(x9)-----------|
G|-2------------11-------11-------2---------11------11------11------11--------|
D|-4------------12-------12-------4---------12------12------12------12--------|
A|----------------------------------------------------------------------------|
D|----------------------------------------------------------------------------|


[Chorus]

e|----------------------------------------------------|
B|--------10/12---------------------------------------|
G|--11----11---13--9----------9/----------------------|(x4)
D|--11-11----------9-11-9/11-9/----------------------|
A|-----12------------11-9/11-------------------------|
D|----------------------------------------------------|

e|----------------------------------------12/14-------|
B|----------------------------------------------14----|
G|--11-------11/13----11-13------14-13-11-------------|(x4)
D|--11-11----------14-------11------------------------|
A|-----0--12-------------------0----------------------|
D|----------------------------------------------------|


[Pre-verse/Intro again]

e|----4-------4-------4-----4----------|
B|------2-------2-------------2--------|
G|--2-------2-------2-----2------------|
D|4-------4-------4-----4--------------|
A|-------------------------------------|
D|-------------------------------------|


[Verse]

e|-4---(x36)----------------------4---(x36)-------------------------10-(x9)---|
B|-2------------12-(x9)--9--(x9)--2---------14-(x9)-12-(x9)-9--(x9)-----------|
G|-2------------11-------11-------2---------11------11------11------11--------|
D|-4------------12-------12-------4---------12------12------12------12--------|
A|----------------------------------------------------------------------------|
D|----------------------------------------------------------------------------|

e|-4---(x36)----------------------4---(x36)-------------------------12-(x9)---|
B|-2------------12-(x9)--9--(x9)--2---------14-(x9)-12-(x9)-10--(x9)----------|
G|-2------------11-------11-------2---------11------11------11------11--------|
D|-4------------12-------12-------4---------12------12------12------12--------|
A|----------------------------------------------------------------------------|
D|----------------------------------------------------------------------------|


[Chorus-ish]

strum real fast-like here
e|---------------------------------------------------------------------------|
B|--14----9----10------------------------------------------------------------|
G|---------------------------------------------------------------------------|
D|--11----6----7-------------------------------------------------------------|
A|---------------------------------------------------------------------------|
D|---------------------------------------------------------------------------|


[Outro]

e|---------------------------------------------------------------------------------------------------------|
B|-------10-10---------10-10--------10-10---------10-10----------9-9---------9-9----------9-9---------9-9--|
G|-11-11---------11-11---------11-11--------11-11----------11-11--------11-11-------11-11-------11-11------|
D|------------11------------11-----------11-------------11-----------11----------11----------11------------|
A|---------------------------------------------------------------------------------------------------------|
D|---------------------------------------------------------------------------------------------------------|

e|-------------------------------------------------------------------------------------------------------|
B|-------10-10----------10-10----------10-10----------10-10---------10-10----------10-10----12b----------|
G|-11-11-------11-11-11-------11-11-11-------11-11-11------11-11-11-------11-11-11-------11--------------|(x2)
D|-------------------------------------------------------------------------------------------------------|
A|-------------------------------------------------------------------------------------------------------|
D|-------------------------------------------------------------------------------------------------------|


(with wah)
e|---------------------------------------9-----------------------------------|
B|---10----9----12--10--12--10--12-10----10----------------------------------|
G|--------------9---9---9---9---9--9-----11----------------------------------|(x2)
D|---11----9----11--11--11--11--11-11----12----------------------------------|
A|---9-----7-----------------------------------------------------------------|
D|---------------------------------------------------------------------------|

e|---------------------------------------------------------------------------|
B|---------------------------------------------------------------------------|
G|--2-2-2---2-2-2---2-2-2----------------------------------------------------|(x4)
D|--4-4-4---4-4-4---4-4-4----------------------------------------------------|
A|---------------------------------------------------------------------------|
D|--4-4-4---4-4-4---4-4-4----------------------------------------------------|

LiveInternet