AllChordsTabs.com

Hugh Laurie - Police Dog Blues (First Version) Chords and Tabs


Artists:
Chords and Tabs » H » Hugh Laurie - Police Dog Blues (First Version)

Hugh Laurie - Police Dog Blues (First Version)

Hugh Laurie - Police Dog Blues (First Version) Chords / Tabs

Hugh Laurie - Police Dog Blues First Version: chords and tabs for the song. Watch chords and tablatures for all songs of the singer (group) Hugh Laurie. Other chords and tabs for the "Police Dog Blues" can find at the bottom of the page.

#------------------------------------------------------------------------------##

Guitar tab for Hugh Laurie's version of Police Dog Blues on the album 'Let Them Talk'.
I couldn't find a standard tuning version of this online, so I decided to make one.



Tuning : Standard.
Capo : None.

4/4

Intro :
Gtr I
e|-----2-----------------------------0-------------------------|
B|-------3------------5p2--------------3-2-0----------0---0----|
G|---------4--------------4-0h1--------------0h1--------1------|
D|---4--------------2-----2-----2----------------2-------------|
A|-2----------2-3-4--------------------------------------------|
E|---------------------------------0----------------0----------|

The chords for the verse are the usual E, A, B blues chords.
The picking pattern can be improvised.

Fill between the verses:

|---0-------------|---0---2----|
|-----3-2-0-------|-----3------|
|-----------0h1---|------------|
|---------------2-|------------|
|-----------------|------------|
|-0---------------|-0----------|


Guitar solo :

|-------7---7-------7-|
|---8b9---8-8---8b9---|
|---------------------|
|---------------------|
|---------------------|
|-0-----------0-------|


|---9-------7---7--9-7----------------------------------------|
|-8-8---8b9---8--------8b9r========5---8b8.5-5---8p7p5----5---|
|--------------------------9----/6---6---------6-------/6-----|
|-------------------------------------------------------------|
|-------------------------------------------------------------|
|-----0-----------------------0-----------------------------0-|


|---------0-------|---------0---2---|---2-------------|
|-----------3-2-0-|-----------3-----|-----3-----------|
|-0h1-------------|-0h1-------------|-------4---------|
|-----2-----------|-----2-----------|-4-------------2-|
|-----------------|---------------2-|---------2-3-4---|
|-------0---------|-------0---------|-----------------|


|---------------0-|-----------------|-----|
|-5p2-------------|-3-2-0---------0-|---0-|
|-----4-0h1-------|-------0h1-------|-1---|
|-----2-----2-----|-----------2-----|-----|
|-----------------|-----------------|-----|
|-------------0---|-------------0---|-----|


The part where the double bass has a 'solo', the guitar chords are still E, A, B with
some minor variations
and picking improvs.
Apart from that, the song is entirely the same.


|-|
|-|
|-|
|-|
|-|
|-|


Tablature Legend
----------------
h   - hammer-on
p   - pull-off
b   - bend
pb  - pre-bend
r   - bend release (if no number after the r, then release immediately)
/  - slide into or out of (from/to "nowhere")
s   - legato slide
S   - shift slide
  - natural harmonic
[n]  - artificial harmonic
n(n) - tapped harmonic
~   - vibrato
tr  - trill
T   - tap
TP  - trem. picking
PM  - palm muting

/  - tremolo bar dip; n = amount to dip

  - tremolo bar down
n/  - tremolo bar up
/n  - tremolo bar inverted dip
=   - hold bend; also acts as connecting device for hammers/pulls
<>  - volume swell (louder/softer)
x   - on rhythm slash represents muted slash
o   - on rhythm slash represents single note slash

***************************************************************************************
***************************************************************************************

LiveInternet