AllChordsTabs.com

Hugh Grant - Pop Goes My Heart (First Version) Chords and Tabs


Artists:
Chords and Tabs » H » Hugh Grant - Pop Goes My Heart (First Version)

Hugh Grant - Pop Goes My Heart (First Version)

Hugh Grant - Pop Goes My Heart (First Version) Chords / Tabs

Hugh Grant - Pop Goes My Heart First Version: chords and tabs for the song. Watch chords and tablatures for all songs of the singer (group) Hugh Grant. Other chords and tabs for the "Pop Goes My Heart" can find at the bottom of the page.

Intro: G-A-B-C#-D-E

-14-12-------14-12------   --12-10--------12-10-------|
-------15-12------15-12- 2x  -------12-10-------12-10-| 2x
------------------------   ---------------------------|
------------------------   ---------------------------|
------------------------   ---------------------------|
------------------------   ---------------------------|

Verse: G-A-B-C#-D-E

I never thought that I could be so satisfied
Everytime that I look in your angel eyes
A shock inside me that words just can't describe
(And there's no explaining)
There's something in the way you move, I can't deny
Every word from your lips is a lullaby
A twist of fate makes life worth while

F#
You are gold and silver.

[CHORUS]

G-A-D-G(2x)
I said I wasn't gonna lose my head, but then
POP! Goes my heart (pop goes my heart) *
I wasn't gonna fall in love again, but then
POP! Goes my heart (pop goes my heart) *
F#m-A
And I just can't let you go,
I can't lose this feeling.

*(during 'pop goes my heart'answer)
-17-15-14-------|
----------15----|
----------------|
----------------|
----------------|
----------------|

[VERSE 2]

These precious moments, we have so few
Lets go far away, where there's nothing to do but play
You showed to me that my destiny's with you
(And there's no explaining)
Lets fly so high, will you come with me tonight
In your dress, I confess, you're the source of light
The way you shine in the starry skies
You are gold and silver

[CHORUS]

Solo

----------10----12----14----15----14--12-10~-|
-10-12-10----10----10----10----10---10-------|
---------------------------------------------|  (throughout)
---------------------------------------------|
---------------------------------------------|
---------------------------------------------|


-19-17-15-14h15p14-14---------|
----------------------17-15---|
------------------------------| (higher melody comes in after
------------------------------|  2x of above to repeat for the
------------------------------|  remainder of the solo)
------------------------------|


A twist of fate makes life worth while,

F#
You are gold and silver.


Chorus 2x

LiveInternet