AllChordsTabs.com

Tokyo Police Club - Pch (First Version) Chords and Tabs


Artists:
Chords and Tabs » T » Tokyo Police Club - Pch (First Version)

Tokyo Police Club - Pch (First Version)

Tokyo Police Club - Pch (First Version) Chords / Tabs

Tokyo Police Club - Pch First Version: chords and tabs for the song. Watch chords and tablatures for all songs of the singer (group) Tokyo Police Club. Other chords and tabs for the "Pch " can find at the bottom of the page.

[INTRO]

e-----------------------------------------------------
B--13--13----------------13--13---16--13--------------
G--13--13----------------13--13---13--13--------------
D--13--13----------6-----13--13---13--13----------10-6
A----------6-6-8-8---8--------------------6-6-8-8-----
E-----------------------------------------------------

[VERSE]

e--4--4-------------------4--4---------------
B--4--4-------------------4--4---------------
G--5--5-------------------5--5---------------
D--6--6------------6------6--6-----------10-6
A--6--6----6-6-8-8---8----6--6---6-6-8-8-----
E--4--4-------------------4--4---------------

[PRECHORUS]

e--11--9--8--6--4--6--8--9--11
B--9---8--8--6--6--8--8--8--8-
G--10--8--8--6--6--8--8--8--8-
D-----------------------------
A-----------------------------
E-----------------------------

[CHORUS]

e-----------------------------
B-----------------------------
G-----------------------------
D--6--13--10-8--6----6--11--13
A--x--x---x--x--x----x--x---x-
E--4--11--8--6--4----4--9---11

LiveInternet