AllChordsTabs.com

Crystal Castles - Baptism (First Version) Chords and Tabs


Artists:
Chords and Tabs » C » Crystal Castles - Baptism (First Version)

Crystal Castles - Baptism (First Version)

Crystal Castles - Baptism (First Version) Chords / Tabs

Crystal Castles - Baptism First Version: chords and tabs for the song. Watch chords and tablatures for all songs of the singer (group) Crystal Castles. Other chords and tabs for the "Baptism" can find at the bottom of the page.

-------------------------------------------------------------------------------
-------------------------------------------------------------------------------

Tuning: Standard

Intro (You can do any strumming you want, but these are just eighth notes)(twice)

e|--------------------------------------------------------------------------|
B|--------------------------------------------------------------------------|
G|---9-9-9-9----------------------------------------------------------------|
D|---9-9-9-9-9-9-9-9-9-9-9-9-10-10-10-10------------------------------------|
A|---7-7-7-7-9-9-9-9-9-9-9-9-10-10-10-10------------------------------------|
E|-----------7-7-7-7-7-7-7-7-8--8--8--8-------------------------------------|

Beeping Part (This is the bassline in the background, and these are 16th notes)( 8 times)

e|---------------------------------------------------------------------------|
B|---------------------------------------------------------------------------|
G|---------------------------------------------------------------------------|
D|---------------------------------------------------------------------------|
A|2-2-2-2-2-2-2-2-2-2-2-2-2-2-2-2-2-2-5-5-5-5-2-2-2-2-2-2-2-2-2-2------------
E|---------------------------------------------------------------------------|

Verse (these are 16th notes) (4 times)

e|---------------------------------------------------------------------------|
B|---------------------------------------------------------------------------|
G|--999-999------------------------------------------------------------------|
D|--999-999-999-999-999-999-101010-101010------------------------------------|
A|--777-777-999-999-999-999-101010-101010------------------------------------|
E|----------777-777-777-777-8-8-8--8-8-8-------------------------------------|

Chorus (eighth notes)(4 times)

e|---------------------------------------------------------------------------|
B|---------------------------------------------------------------------------|
G|--9-9-9-9------------------------------------------------------------------|
D|----------9-9-9-9-9-9-9-9-10-10-10-10--------------------------------------|
A|--7-7-7-7------------------------------------------------------------------|
E|----------7-7-7-7-7-7-7-7-8--8--8--8---------------------------------------|

Beeping Part (8 times)

Verse (4 times)

Chorus ( 4times)

Beeping Part ( 8 times)

Verse ( 4 times)

Chorus ( 4 times)

Verse (4 times)

Chorus ( 4 times)

Outro ( quarter Notes)(4 times)
e|---------------------------------------------------------------------------|
B|---------------------------------------------------------------------------|
G|---9--9--------------------------------------------------------------------|
D|---------9--9--9--9--10-10-------------------------------------------------|
A|---7--7--------------------------------------------------------------------|
E|---------7--7--7--7--8--8--------------------------------------------------|


************************************

| /   slide up
|    slide down
| h   hammer-on
| p   pull-off
| ~   vibrato
| +   harmonic
| x   Mute note
| b   Bend
| pb  Pre-bend
| br  Bend release
| pbr Pre-bend release
| brb Bend release bend

************************************

LiveInternet