AllChordsTabs.com

The Summer Set - Where Are You Now (First Version) Chords and Tabs


Artists:
Chords and Tabs » T » The Summer Set - Where Are You Now (First Version)

The Summer Set - Where Are You Now (First Version)

The Summer Set - Where Are You Now (First Version) Chords / Tabs

The Summer Set - Where Are You Now First Version: chords and tabs for the song. Watch chords and tablatures for all songs of the singer (group) The Summer Set. Other chords and tabs for the "Where Are You Now" can find at the bottom of the page.

Ok this is a tab I already had submitted but now im registered and will do it
again with some new stuff

Tuning: Standard

Intro
A D Fm E x2

Verse 1

A                  D           Fm             E
I've been staying awake in the front seat for days
A              D       Fm    E
let the wheel turn and take me away
A            D          Fm         E
oh the truth i must sell is im lonely as hell
A       D   Fm   E
still looking for myself
A          D        Fm        E
it rained all day when youre not around
A          D           Fm              E
and im trying my best to come clean with the clouds
A          D           Fm             E          A   D   Fm
they follow me around, i'll dance til the rain comes down


Chorus
E            Fm   D     A           E
stuck in the sand with waves at my feet
Fm   D          A         E
and i wish you'd come crash into me
Fm   D     A       E        Fm D D
cause where you are is where i wanna be now
Fm   D   C#m
where are you now


Verse 2
A           D          Fm        E
and i know im not perfect but what the hell
A           D           Fm          E
do yout think of me now (do you think of me now)
A               D
they say love is for the patient
Fm             E            A   D Fm E
got a plan for being restless for now
A           D               Fm        E
hope im more than a cheap trick you played on yourself
A        D            Fm       E
but i do it so well (yea im doing so well)
A         D
they follow me around
Fm            E          A  D   Fm
i'll dance til the rain comes down


Chorus
E            Fm   D        A           E
stuck in the sand with the waves at my feet
Fm   D     A          E
and i wish you'd crash into me
Fm  D     A       E        Fm  D  D
cause where you are is where i wanna be now
Fm  D  C#m
where are you now?

Fm D A E x3 Fm D D Fm D C#m


Now, I think I got the solo, it sounds the same as the song:

------------------------------------------|
-9-10-----10-9-10----10-9-10---10-12-12-12|
------9-----------9----------9------------|
------------------------------------------|
------------------------------------------|
------------------------------------------|

------------------------------------------|
-9-10-----10-9-10----10-14-14-14-12-12-12-|
------9-----------9-----------------------|
------------------------------------------|
------------------------------------------|
------------------------------------------|

------------------------------------------|
-6--6-7-9-10-10-10---6--6-7-9-10-10-10----|
------------------------------------------|
------------------------------------------|
------------------------------------------|
------------------------------------------|

-9--9-10--10-10---9--9-10--10-9-----------|
--10----10---------10----10---------------|
------------------------------------------|
------------------------------------------|
------------------------------------------|
------------------------------------------|

I still haven't got the end but i'm working on it, i'm pretty close

LiveInternet