AllChordsTabs.com

Tinie Tempah - Pass Out (First Version) Chords and Tabs


Artists:
Chords and Tabs » T » Tinie Tempah - Pass Out (First Version)

Tinie Tempah - Pass Out (First Version)

Tinie Tempah - Pass Out (First Version) Chords / Tabs

Tinie Tempah - Pass Out First Version: chords and tabs for the song. Watch chords and tablatures for all songs of the singer (group) Tinie Tempah. Other chords and tabs for the "Pass Out" can find at the bottom of the page.

-------------------------------------------------------------------------------
-------------------------------------------------------------------------------

Tuning: standard

with regards to timing on this tab there are no 11's notated in this tab, just 1's that
probably being played as 16th's. and the only ten's you'll find are in the chords other
that hopefully this tab wont be confusing its my first time... giggidy

Intro:
that weird synth bass thing also played in the verse i beleive
e|---------------------------------------------------------------------|
B|---------------------------------------------------------------------|
G|-----------6666666---------------------------------------------------|
D|---------66----------------------------------------------------------|
A|---433333---------4--------------------------------------------------|
E|---------------------------------------------------------------------|

play 3 times but end on c# on on the a string for beat one of would be the fourth time round

main riff A
e|---------------------------------------------------------------------|
B|---------------------------------------------------------------------|
G|-----------1-0-------------------------------------------------------|
D|--------------333333-------------------------------------------------|
A|---3333331----------11-----------------------------------------------|
E|----------4----------------------------------------------------------|

main riff B
e|---------------------------------------------------------------------|
B|---------------------------------------------------------------------|
G|-----------1-1--1-1--------------------------------------------------|
D|--------------33-----------------------------------------------------|
A|---3333331----------1-1----------------------------------------------|
E|----------4----------------------------------------------------------|

second verse there some really deep vocals that are just an f power chord

e|--------------|
B|--------------|
G|--------------|
D|--3-----------|
A|--3-----------|
E|--1-----------|

later on there is a really staccato f minor played once with the feedback on the delay
set really high

e|--8-------------|
B|--9-------------|
G|--10------------|
D|--10------------|
A|--8-------------|
E|----------------|

then building on from that chord is this (kind of) chord progression played sort of
off beat like for the rest of the song untill the last repetition of the main riff

e|--8----9----------------------------------------------------|
B|--9----11---------------------------------------------------|
G|--10---10---------------------------------------------------|
D|--10---8----------------------------------------------------|
A|--8---------------------------------------------------------|
E|------------------------------------------------------------|

ending

e|-----------------------------------------------------------------------|
B|-----------------------------------------------------------------------|
G|--------------------1-1------11----11----------------------------------|
D|------------------------3-3----3---------------------------------------|
A|----3-3-3-3-3-3-1----------------1-------------------------------------|
E|------------------4-------------------41-------------------------------|

LiveInternet