AllChordsTabs.com

Crystal Castles - Intimate (First Version) Chords and Tabs


Artists:
Chords and Tabs » C » Crystal Castles - Intimate (First Version)

Crystal Castles - Intimate (First Version)

Crystal Castles - Intimate (First Version) Chords / Tabs

Crystal Castles - Intimate First Version: chords and tabs for the song. Watch chords and tablatures for all songs of the singer (group) Crystal Castles. Other chords and tabs for the "Intimate" can find at the bottom of the page.

--------------------------------------------------------------------
--------------------------------------------------------------------


Tuning: Standard

Intro, Synth for Guitar

e|-13----------13---------13---------13-----------|
B|----14-13-------14-13------14-13------14-13-----| * Riff A
G|----------13----------13---------13---------13--|
D|------------------------------------------------|
A|------------------------------------------------|
E|------------------------------------------------|

Then:

e|-13-16----13-----------------------| * Riff B
B|-------14----13-16-----------------|
G|------------------13-17------------| repeated 8 times
D|-----------------------------------|
A|-----------------------------------|
E|-----------------------------------|

Timings a little difficult here, tis an arppegio played on a MicroKorg.


e|-13-18-16----16-13---------------------|  * Riff C
B|-----------14------13-18-16----16-13---|
G|-----------------------------13--------|
D|---------------------------------------| This is repeated 32 times
A|---------------------------------------|
E|---------------------------------------|

Bass Comes in 12 bars into the song as Riff C starts and is the same throughout the
Sounds best on guitar if you use an octaver.

G|------------------------------------------------------------------|
D|-3-3-3-3-3-3-3-3-3-3-3-3-3-3-3-3----------------------------------|
A|---------------------------------4-4-4-4-4-4-4-4-1-1-1-1-1-1-1-1--|
E|------------------------------------------------------------------|

e|-16----15----13---18-------------| * Riff D
B|---------------------------------|
G|----17---15----13---18-----------|  8 times
D|---------------------------------|
A|---------------------------------|
E|---------------------------------|

And then back into,

e|-13-18-16----16-13---------------------|
B|-----------14------13-18-16----16-13---|
G|-----------------------------13--------|
D|---------------------------------------| repeated another 32 times
A|---------------------------------------|
E|---------------------------------------|

e|-13----------13---------13---------13-----------|
B|----14-13-------14-13------14-13------14-13-----|
G|----------13----------13---------13---------13--| once
D|------------------------------------------------|
A|------------------------------------------------|
E|------------------------------------------------|


e|-13-16----13-----------------------|
B|-------14----13-16-----------------|
G|------------------13-17------------| repeated 4 times
D|-----------------------------------|
A|-----------------------------------|
E|-----------------------------------|


e|-16----15----13---18-------------|
B|---------------------------------|
G|----17---15----13---18-----------|  8 times
D|---------------------------------|
A|---------------------------------|
E|---------------------------------|

Then the feedback sound starts and for the rest of the song its a variation of riffs
and D.
Song ends with Riff D.

LiveInternet