AllChordsTabs.com

Ayo - Sunny Bass (Second Version) Chords and Tabs


Artists:
Chords and Tabs » A » Ayo - Sunny Bass (Second Version)

Ayo - Sunny Bass (Second Version)

Ayo - Sunny Bass (Second Version) Chords / Tabs

Ayo - Sunny Bass Second Version: chords and tabs for the song. Watch chords and tablatures for all songs of the singer (group) Ayo. Other chords and tabs for the "Sunny Bass" can find at the bottom of the page.

[Intro]

G|-----------------|-----------------|-----------------|--------------------|
D|-----------------|-----------------|-----------------|--------------------|
A|-----------------|-----------------|-----------------|-------5p4-5-5p4-5--|
E|-5-5-5-5-5-5-5-5-|-5-5-5-5-5-5-0-3-|-5-5-5-5-5-5-5-5-|-5------------------|


[Verse 1]

Am                C7                F                 B       E7
G|-----------------|-----------------|-----------------|-----------------|
D|-----------------|-----------------|-----------------|-----------------|
A|-----------------|-----------------|-----------------|-------5-7-7-7---|
E|-5-5-5-5-5-5-5-5-|-8-8-8-8-8-8-8-0-|-1-1-1-1-1-1-1-1-|-7-7-7---------0-|

Am                C7                F                 B       E7
G|-----------------|-----------------|-----------------|-----------------|
D|-----------------|-----------------|-----------------|-----------------|
A|-----------------|-----------------|-----------------|-----5-6-7-7-7-7-|
E|-5-5-5-5-5-5-5-5-|-8-8-8-8-8-8-8-0-|-1-1-1-1-1-1-1-1-|-7-7-------------|

Am                C                F                 C
G|-----------------|-----------------|-----------------|-------------2-2-|
D|-----------------|-----------------|-----------------|---------0-0-----|
A|-----------------|-----------------|-----------------|-0-0-3-3---------|
E|-5-5-5-5-5-5-5-7-|-8-8-8-8-8-8-8-8-|-1-1-1-1-1-1-1-1-|-----------------|

B7b5              E7      Am
G|-----------------|-------|-----------------|-------------------|
D|-----------------|-2-----|-7-7-7-7-7-7-7-7-|-7-7-7-7-7-7---5-6-|
A|-2-2-2-2-2-2-2-2-|-------|-----------------|-------------7-----|
E|-----------------|-------|-----------------|-------------------|


[Verse 2]

Am                C7                F                 B       E7
G|-----------------|-----------------|-----------------|-----------------|
D|-----------------|-----------------|-----------------|-----------------|
A|-----------------|-----------------|-----------------|-------5-7-7-7---|
E|-5-5-5-5-5-5-5-5-|-8-8-8-8-8-8-8-0-|-1-1-1-1-1-1-1-1-|-7-7-7---------0-|

Am                C7                F                 B       E7
G|-----------------|-----------------|-----------------|-----------------|
D|-----------------|-----------------|-----------------|-----------------|
A|-----------------|-----------------|-----------------|-----5-6-7-7-7-7-|
E|-5-5-5-5-5-5-5-5-|-8-8-8-8-8-8-8-0-|-1-1-1-1-1-1-1-1-|-7-7-------------|

Am                C                F                 C
G|-----------------|-----------------|-----------------|-------------2-2-|
D|-----------------|-----------------|-----------------|---------0-0-----|
A|-----------------|-----------------|-----------------|-0-0-3-3---------|
E|-5-5-5-5-5-5-5-7-|-8-8-8-8-8-8-8-8-|-1-1-1-1-1-1-1-1-|-----------------|

Bb7b5             E7       Am
G|-----------------|--------|-----------------|-------------------|
D|-----------------|-2------|-7-7-7-7-7-7-7-7-|-7-7-7-7-7-7-7-7-7-|
A|-1-1-1-1-1-1-1-1-|---2----|-----------------|-------------------|
E|-----------------|-----0--|-----------------|-------------------|


[Verse 3]
(modulation: 1 half step up, from Am to Bbm)

Bbm               Db7               Gb                C       F7
G|-----------------|-----------------|-----------------|-----------------|
D|-----------------|-------------1-3-|-4-4-4-4-4-4-4-4-|-------1-3-3-3-3-|
A|-----------------|-4-4-4-4-4-4-----|-----------------|-3-3-3-----------|
E|-6-6-6-6-6-6-6-6-|-----------------|-----------------|-----------------|

Bbm               Db7               Gb                C       F7
G|-----------------|-----------------|-----------------|-----------------|
D|-----------------|-----------------|-4-4-4-4-4-4-4-4-|-------1-3-3-3-3-|
A|-----------------|-4-4-4-4-4-4-4-4-|-----------------|-3-3-3-----------|
E|-6-6-6-6-6-6-6-6-|-----------------|-----------------|-----------------|

Bbm               Db                Gb                Db
G|-----------------|-----------------|-----------------|-----------------|
D|-----------------|-----------------|-----------------|-----------------|
A|-----------------|-----------------|-----------------|-2-2-2-2-2-2-2-2-|
E|-6-6-6-6-6-6-6-6-|-9-9-9-9-9-9-9-9-|-2-2-2-2-2-2-2-2-|-----------------|

C7b5              F7         Bbm
G|-----------------|----------|-------------8-10-|-------------------|-8-10-8----8-------|
D|---------------1-|-3--------|-8-8-8-8-8-8------|-8-8-8-8-8-8-8-8-8-|--------10---8-8-8-|
A|-3-3-3-3-3-3-3---|----------|------------------|-------------------|-------------------|
E|-----------------|---13/----|------------------|-------------------|-------------------|


[Verse 4]
(modulation: 1 half step up, from Bbm to Bm)

Bm                D7                G                 C#      F#7
G|-----------------|-----------------|-----------------|-----------------|
D|-----------------|-----------------|-----------------|-----------------|
A|-----------------|-5-5-5-5-5-5-5-5-|-----------------|-4-4-4-----------|
E|-7-7-7-7-7-7-7-7-|-----------------|-3-3-3-3-3-3-3-3-|-------0-2-2-2-2-|

Bm                D7                G                 C#      F#7
G|-----------------|-----------------|-----------------|-----------------|
D|-----------------|-----------------|-----------------|-----------------|
A|---------------4-|-5-5-5-5-5-5-5-5-|-----------------|-4-4-4-----------|
E|-7-7-7-7-7-7-7---|-----------------|-3-3-3-3-3-3-3-3-|-------0-2-2-2-2-|

Bm                D                 G                 D
G|-----------------|-----------------|-----------------|-----------------|
D|-----------------|-----------------|-----------------|-----------------|
A|-----------------|-5-5-5-5-5-5-5-5-|-----------------|-5-5-5-5-5-5-5-5-|
E|-7-7-7-7-7-7-7-7-|-----------------|-3-3-3-3-3-3-3-3-|-----------------|

C#7b5             F#7      Bm
G|-----------------|--------|-----------------|---7-9-7-----------|
D|-----------------|-4------|-9-9-9-9-9-9-9-9-|-9-------9-9-9-9-9-|
A|-4-4-4-4-4-4-4-4-|---4----|-----------------|-------------------|
E|-----------------|-----2--|-----------------|-------------------|


[Verse 5]
(modulation: 1 half step up, from Bm to Cm

Cm                Eb7               Ab                D      G7
G|-----------------|-----------------|-----------------|-----------------|
D|-----------------|-----------------|-----------------|-----------------|
A|---------------5-|-6-6-6-6-6-6-6-6-|-----------------|-5-5-5-5---------|
E|-8-8-8-8-8-8-8---|-----------------|-4-4-4-4-4-4-4-4-|---------3-3-3-3-|

Cm                Eb7               Am                D      G7
G|-----------------|-----------------|-----------------|-----------------|
D|-----------------|---------------5-|-----------------|-----------------|
A|---------------5-|-6-6-6-6-6-6-6---|-----------------|-5-5-5-5---------|
E|-8-8-8-8-8-8-8---|-----------------|-4-4-4-4-4-4-4-4-|---------3-3-3-3-|

Cm                Eb                Ab                Eb
G|-----------------|-----------------|-----------------|-----------------|
D|-----------------|-----------------|-----------------|-----------------|
A|-----------------|-6-6-6-6-6-6-6-6-|-----------------|-6-6-6-6-6-6-6-6-|
E|-8-8-8-8-8-8-8-8-|-----------------|-4-4-4-4-4-4-4-4-|-----------------|

D7b5              G7       Cm
G|-----------------|--------|-----------------|-----------------|
D|-----------------|-5------|-----------------|-----------------|
A|-5-5-5-5-5-5-5-5-|---5----|-----------------|-----------------|
E|-----------------|-----3--|-8-8-8-8-8-8-8-8-|-8-8-8-8-8-8-8-8-|
(to end the bassist does some improv
using the Cm pentatonic scale)

LiveInternet