AllChordsTabs.com

Jason Aldean - Crazy Town (First Version) Chords and Tabs


Artists:
Chords and Tabs » J » Jason Aldean - Crazy Town (First Version)

Jason Aldean - Crazy Town (First Version)

Jason Aldean - Crazy Town (First Version) Chords / Tabs

Jason Aldean - Crazy Town First Version: chords and tabs for the song. Watch chords and tablatures for all songs of the singer (group) Jason Aldean. Other chords and tabs for the "Crazy Town" can find at the bottom of the page.

[Intro] (play twice)
e|-----------------------------------------------------------------------------------|
B|-----------------------------------------------------------------------------------|
G|-5h7-7-7-5-7-7-7-5-7-7-7-5-7-7-9---------------------------------------------------|  x2
D|-0---0-0---0-0-0-------------------------------------------------------------------|
A|-----------------------------------------------------------------------------------|
E|-----------------------------------------------------------------------------------|

e|-----------------------------------------------------------------------------------|
B|-----------------------------------------------------------------------------------|
G|-----------------------------------------------------------------------------------|
D|-----------------------------------------------------------------------------------|
A|-3-5-0-3-0-3-5-0-3-0-3-5-0h2/1-----------------------------------------------------|
E|-------------------------------0---------------------------------------------------|


[Solo] (May be incorrect, but I think it is close)
e|--------------------------------------------------------------------------------8-------------------------|
B|-------------------------------------13b15-------------------8-9-10-8-9-10-10b12--10b12-10b12-8h10~-------|
G|-----5-7-6-5-5-6-7-----5-7-6-5-----------------5-7-6-5-5-6-7----------------------------------------------|
D|-5h7---------------5h7---------11-12-------5h7------------------------------------------------------------|
A|----------------------------------------------------------------------------------------------------------|
E|----------------------------------------------------------------------------------------------------------|

LiveInternet