AllChordsTabs.com

Feist - Cicadas And Gulls (First Version) Chords and Tabs


Artists:
Chords and Tabs » F » Feist - Cicadas And Gulls (First Version)

Feist - Cicadas And Gulls (First Version)

Feist - Cicadas And Gulls (First Version) Chords / Tabs

Feist - Cicadas And Gulls First Version: chords and tabs for the song. Watch chords and tablatures for all songs of the singer (group) Feist. Other chords and tabs for the "Cicadas And Gulls" can find at the bottom of the page.

(Intro)

Capo 6th Fret

The chords with the S under them should be strummed for a little while before going on..
I just didn't want to tab it out - too repetitive

|---------------------------------------------------------|
|---------1---1---1-------0----------1---1---1-------0----|
|-2S4-2-0-----0---0-----0-0----4-0-0-----0---0-----0-0----|
|-0-----------2---0h2---0-0----0---------2---0h2---0-0----|
|-----------3-3---3---3---2------------3-3---3---3---2----|
|-------------------------3--------------------------3----|
S           S              S           S

|------------------------------------------|
|-----1------1--------1-------0---0---0----|
|---0h2--------2-0h2----2-0---0---0---0----|
|---0h2----------2--------0h2---------0----|
|-0---0--0h3--------------0h2---------2----|
|---------------------------0---2---3-3----|
S

LiveInternet