AllChordsTabs.com

Ashes Divide - Enemies (First Version) Chords and Tabs


Artists:
Chords and Tabs » A » Ashes Divide - Enemies (First Version)

Ashes Divide - Enemies (First Version)

Ashes Divide - Enemies (First Version) Chords / Tabs

Ashes Divide - Enemies First Version: chords and tabs for the song. Watch chords and tablatures for all songs of the singer (group) Ashes Divide. Other chords and tabs for the "Enemies" can find at the bottom of the page.

Ashes Divide
Tuning: Db Gb B E Ab Db

It's not 100% correct but i'm open to feedback on how to
improve the tab...


Intro  (Figure out the strumming rhythm between the slides)

Db|----------------------------------------------------------|
Ab|----------------------------------------------------------|
E |--19---16-/--23---24--23--24--23--24--23---21---------|
B |--x----x--/--x----x---x---x---x---x---x----x----------|
Gb|--17---14-/--21---22--21--22--21--22--21---19---------|
Db|----------------------------------------------------------|

Verse Fig. 1

Db|------------------------------------|
Ab|------------------------------------|
E |--19---16--16---14----------------|
B |--x----x---x----x-----------------|
Gb|--17---14--14---12----------------|
Db|------------------------------------|


Chorus

Db|---------------------------------------------------------------------|
Ab|---------------------------------------------------------------------|
E |--21-/--23-/-24------21----21----21----21----21---23-23-21-20-21-----|
B |--x--/--x--/-x----19----19----19----19----19------x--x--x--x--x------|
Gb|--19-/--21-/-22-----------------------------------21-21-19-18-19-----|
Db|---------------------------------------------------------------------|


Interlude  (keep picking the notes)

Db|---------------------------------------|
Ab|---------------------------------------|
E |--21----16b--------19------------------|
B |---------------------------------------|
Gb|---------------------------------------|
Db|---------------------------------------|

Verse Fig. 2

Db|----------------------------------------------------------------------------------------|
Ab|----------------------------------------------------------------------------------------|
E |--19---16------------------------------------------------------------------------------|
B |--x----x------17p16---17p16---17p16---17-/-19~----17p16---17p16---17p16---17-/-19~-----|
Gb|--17---14------------------------------------------------------------------------------|
Db|----------------------------------------------------------------------------------------|


Db|----------------------------------------------------------------------------------------------|
Ab|----------------------------------------------------------------------------------------------|
E |--19---16------------------------------------------------------------------------------------|
B |--x----x------17p16---17p16---17p16---17-/-19~----17p16---17p16---17p16-17p16-17p16-17p16----|
Gb|--17---14------------------------------------------------------------------------------------|
Db|----------------------------------------------------------------------------------------------|



Song structure:

Intro
Verse Fig. 1
Chorus 2x
Interlude
Verse Fig. 2
Chorus 2x
Outro 2x (chorus with heavy noise)

LiveInternet