AllChordsTabs.com

The Summer Set - Passenger Seat (First Version) Chords and Tabs


Artists:
Chords and Tabs » T » The Summer Set - Passenger Seat (First Version)

The Summer Set - Passenger Seat (First Version)

The Summer Set - Passenger Seat (First Version) Chords / Tabs

The Summer Set - Passenger Seat First Version: chords and tabs for the song. Watch chords and tablatures for all songs of the singer (group) The Summer Set. Other chords and tabs for the "Passenger Seat" can find at the bottom of the page.

Passenger Seat by the summer set
Standard Tuning

Okay, I still made this by ear. Just get the right timing and I assure you it'll sound awesome.
I hope you enjoy!

INTRO:
Guitar 1:
e|---3---3---7-7777777------8--8---12-1212--10-1010|
b|---------------------3S-5---5-5------------------|
G|-5----5-5----------------------------------------|
D|-------------------------------------------------|
A|-------------------------------------------------|
E|-------------------------------------------------|2x

Guitar 2:
e|-------------------------------------------------|
b|-------------------------------------------------|
G|-55555555----------------------------------------|
D|-55555555--55555555--77777777--3333--5555--------|
A|-33333333--55555555--77777777--3333--5555--------|
E|-----------33333333--55555555--1111--3333--------|2x

Verse 1: (Palm muted)
It's 3 AM, I'm outside your window
Jump the fence, Dad will never know
Fell in love with you in my passenger seat
e|------------------------------------------------|
b|------------------------------------------------|
G|--55--5-5---------------------------------------|
D|--55--5-5----55--5-5----33--3-3----33--3-3------|
A|--35--3-3----55--5-5----33--3-3----33--3-3------|
E|-------------33--3-3----11--1-1----11--1-1------|1x

Verse 2: (still Palm muted)
And then you took control of the radio
And turned up all the songs I know
e|------------------------------------------|
b|------------------------------------------|
G|-5555555555555555-------------------------|
D|-5555555555555555--5555555555555555-------|
A|-3333333333333333--5555555555555555-------|
E|-------------------3333333333333333-------|
I'm risking everything
And that's alright with me
e|------------------------------------------|
b|------------------------------------------|
G|------------------------------------------|
D|-7777777777777777--3333333333333333-------|
A|-7777777777777777--3333333333333333-------|
E|-5555555555555555--1111111111111111-------|

Pre-Chorus:
Roll down the window
Never get caught
Baby, no one will know
e|------------------------------------|
b|------------------------------------|
G|------------------------------------|
D|---7~-----5~-----3~-----5~----------|
A|---7~-----5~-----3~-----5~----------|
E|---5~-----3~-----1~-----3~----------|1x

CHORUS:
Just sweep me off my feet again
My new addiction
I'll be waiting
I've been addicted
e|-------------------------------------------------|
b|-------------------------------------------------|
G|-55555555----------------------------------------|
D|-55555555--55555555--77777777--3333--5555--------|
A|-33333333--55555555--77777777--3333--5555--------|
E|-----------33333333--55555555--1111--3333--------|2x

To this story of a girl
Who can help this boy meet world
e|-------------------------------------------------|
b|-------------------------------------------------|
G|--------------------------------5555-------------|
D|--77777777--55555555--33333333--5555--5555-------|
A|--77777777--55555555--33333333--3333--5555-------|
E|--55555555--33333333--11111111--------3333-------|

And sweep me off my feet again
e|-------------------------------------------------|
b|-------------------------------------------------|
G|------55555555-----------------------------------|
D|------55555555----5~-----------------------------|
A|------33333333----5~-----------------------------|
E|------------------3~-----------------------------|

REPEAT INTRO 1x

VERSE 3:
Backseat down, fog on the windows
The sun came out about an hour ago
Then I kissed your head
Just like I always did

e|----------------------------------------------|
b|----------------------------------------------|
G|--555-----------------------------------------|
D|--555-break-55--5-5----33--3-3----55--5-5-----|
A|--333-------55--5-5----33--3-3----55--5-5-----|
E|------------33--3-3----11--1-1----33--3-3-----|1x

Repeat Verse 2:
And let you take control of the radio
I've gotta get you home
e|---------------------------------------------|
b|---------------------------------------------|
G|---55555555----------------------------------|
D|---55555555---55555555---77777777------------|
A|---33333333---55555555---77777777------------|
E|--------------33333333---55555555------------|
I swear your parents won't know
----------------------|
----------------------|
----------33333333--3~|
----------33333333--3~|
----------11111111--1~|
Me and you've got something special
Perfectly dysfunctional
e|---------------------------|
b|---------------------------|
G|---------------------------|
D|-77777777---55555555-------|
A|-77777777---55555555-------|
E|-55555555---33333333-------|

REPEAT CHORUS:

BRIDGE:
e|--------------------------|
b|--------------------------|
G|-------------5------------|
D|----7---5---3---5---------|
A|----7---5---3---3---------|
E|----5---3---1-------------|

CHORUS: 3x (note the different strumming patterns)

OUTRO:
Guitar 1:
e|---3---3---7-7777777------8--8---12-1212--10-1010|---3---3---7-7777777-8~|
b|---------------------3S-5---5-5------------------|-----------------------|
G|-5----5-5----------------------------------------|-5----5-5--------------|
D|-------------------------------------------------|-----------------------|
A|-------------------------------------------------|-----------------------|
E|-------------------------------------------------|-----------------------|

Guitar 2:
e|-------------------------------------------------|-----------------------|
b|-------------------------------------------------|-----------------------|
G|-55555555----------------------------------------|-55555555------------5~|
D|-55555555--55555555--77777777--3333--5555--------|-55555555--55555555--5~|
A|-33333333--55555555--77777777--3333--5555--------|-33333333--55555555--3~|
E|-----------33333333--55555555--1111--3333--------|-----------33333333----|

That's about it.


Angleswitch Band @GSHCS (Craig, Charlt, Gyle, Fer, Ella), keep on rocking!
J.E.D Band @UST (Jax, Ben, Paul, Kyle), Let's make it official :D

LiveInternet