AllChordsTabs.com

John Cafferty And The Beaver Brown Band - Nyc Song (First Version) Chords and Tabs


Artists:
Chords and Tabs » J » John Cafferty And The Beaver Brown Band - Nyc Song (First Version)

John Cafferty And The Beaver Brown Band - Nyc Song (First Version)

John Cafferty And The Beaver Brown Band - Nyc Song (First Version) Chords / Tabs

John Cafferty And The Beaver Brown Band - Nyc Song First Version: chords and tabs for the song. Watch chords and tablatures for all songs of the singer (group) John Cafferty And The Beaver Brown Band. Other chords and tabs for the "Nyc Song" can find at the bottom of the page.

Cappo on 5th fret – standard tuning



Chords: Cadd9, G

e-------0-----------0------|
B------------3-------------|
G-----0---------0------0---|
D---------2----------------|
A---3----------------------|
E--------------------------|

See those pretty pier lights
This part play 2x
e-------0-----------0------|
B------------3-------------|
G-----0---------0------0---|
D---------2----------------|
A--------------------------|
E--1-----------------------|

I've be walking down broadway

e-------0-----------0-----|
B------------3------------|
G-----0---------0------0--|
D---------2---------------|
A-------------------------|
E--3----------------------|

e-------0-----------0-----|
B------------3------------|
G-----0---------0------0--|
D---------2---------------|
A-------------------------|
E--1----------------------|

With this guitar in my hand
e-------0-----------0------|
B------------3-------------|
G-----0---------0------0---|
D---------2----------------|
A---3----------------------|
E--------------------------|

Been wishing on these stars too long

Basically do Cadd9 here and throw in a bass note through the lyrics until you get to the
next verse
e-------0-----------0------|
B------------3-------------|
G-----0---------0------0---|
D---------2----------------|
A- -3----------------------|
E--------------------------|

Been playing in these bars to long


e-------0-----------0------|
B------------3-------------|
G-----0---------0------0---|
D---------2----------------|
A--------------------------|
E---1----------------------|

That’s basically the whole song. End it on A-3.

I didn’t tab it note per lyric because it’s easy to figure out when you get the
fingering down and just listen to the song for where the bass notes come in. I hope you all
found this tab helpful and will use it to add this awesome song to your collection. This
version of the song sounds best with nylon strings in my opinion but play as you will.

LiveInternet