AllChordsTabs.com

Alabama 3 - Woke Up This Morning (First Version) Chords and Tabs


Artists:
Chords and Tabs » A » Alabama 3 - Woke Up This Morning (First Version)

Alabama 3 - Woke Up This Morning (First Version)

Alabama 3 - Woke Up This Morning (First Version) Chords / Tabs

Alabama 3 - Woke Up This Morning First Version: chords and tabs for the song. Watch chords and tablatures for all songs of the singer (group) Alabama 3. Other chords and tabs for the "Woke Up This Morning" can find at the bottom of the page.

-------------------------------------------------------------------------------
-------------------------------------------------------------------------------

Tuning: E Standard

Listen to song for exact timing.

Keyboard/Harmonica intro....

e|---------------------------------------|
B|--------------------11b13br119-11-11~-|
G|-----8-10-10~--8-----------------------|
D|-/10-------------10--------------------|
A|---------------------------------------|
E|---------------------------------------|

Song is done in a question/answer form. Harmonica questions, guitar answers back.

e|-------------|
B|-------------|
G|-4b5br4p3----|
D|----------3~-|
A|-------------|
E|-------------|

e|------------------------------------------|
B|-/18-1816-13-16-13-----------------------|
G|--------------------15-1310-13/15-1310~-|
D|------------------------------------------|
A|------------------------------------------|
E|------------------------------------------|

e|------------------------|
B|------------------------|
G|-----------1---1---1----|
D|-------1-3---3---3---3~-|
A|-1-2-3------------------|
E|------------------------|

e|------------------------|
B|-/18--16p13-------------|
G|------------15-13p10~---|
D|------------------------|
A|------------------------|
E|------------------------|

e|-------------------------------|
B|-/18--16p13---18-15---9--9--9~-|
G|-----------15-17-15--10-10-10~-|
D|-------------------------------|
A|-------------------------------|
E|-------------------------------|

e|------------------------------------------|
B|----4---/64------------------------------|
G|-/5---5------4b5-5p4p31------------------|
D|-------------------------3---1h2h3---1/3~-|
A|---------------------------3-------3------|
E|------------------------------------------|

Random Fill: Play at the end of each measure through to the end of the song.
e|-------------|
B|-------------|
G|-/5-5p31----|
D|----------3--|
A|-------------|
E|-------------|


************************************

| /   slide up
|    slide down
| h   hammer-on
| p   pull-off
| ~   vibrato
| +   harmonic
| x   Mute note
| b   Bend
| pb  Pre-bend
| br  Bend release
| pbr Pre-bend release
| brb Bend release bend

************************************

LiveInternet