AllChordsTabs.com

Bomb The Music Industry - Pike St. - Park Slope (First Version) Chords and Tabs


Artists:
Chords and Tabs » B » Bomb The Music Industry - Pike St. - Park Slope (First Version)

Bomb The Music Industry - Pike St. - Park Slope (First Version)

Bomb The Music Industry - Pike St. - Park Slope (First Version) Chords / Tabs

Bomb The Music Industry - Pike St. - Park Slope First Version: chords and tabs for the song. Watch chords and tablatures for all songs of the singer (group) Bomb The Music Industry. Other chords and tabs for the "Pike St. - Park Slope" can find at the bottom of the page.

Hey, this is the Harvey Danger Cover off of Album Minus Band, I've never heard
Harvey Dangers version of it so I can't say how accurate it is to that, but I
think I've figured out a general framework for the song by BTMI


Again, as with "this is a singalong,"  I'm transcribing these on an acoustic
guitar to play by myself, so there's lots of layering that's going on in the
song that I'm not really interested in because I only have one instrument to
play.  So if ur planning on using this in a band you may want to have a go at
it yourself.

Here goes...

Intro: (this riff is awesome btw, I know it looks weird in the 4th measure but it works)

e|-----------------|-----------------|-----------------|-----------------|
b|-----------------|-----------------|-----------------|-----------------|
g|-----------------|-----------------|-----------------|-----------------|
d|-----------------|-----------------|-----------------|-----------------|
a|--2-2-2-2-2-2-2-2|--2-2-2-2-2-2-2-2|--2-2-2-2-2-2-2-2|--2-2-2-3-3-3-3-3|
e|-3-3-3-3-3-3-3-3-|-3-3-3-3-3-3-3-3-|-0-0-0-0-0-0-0-0-|-1-1-1-1-1-1-1-1-|

Drive across the country, tell your story walking.
No one's keeping you captive in the town that let you down (so sorry).

Blame it on the television, blame it on the company;
Don't blame it on the fundamental fact that no one owes you something.

"I've come about my share, i only want what's fair.
Anyone who knows me knows that I'm not greedy.
Like everybody else, i wanna pay my dues.
(I only want someone to tell me who to make the check out to.)


Chorus:
e|----------------|----------------|-----------------|----------------|
b|----------------|----------------|-----------------|----------------|
g|----------------|----------------|-----------------|----------------|
d|----------------|----------------|-----------------|-55555----------|
a|-33333----------|-55555----------|-33333-----------|-33333----------|
e|-11111----------|-33333----------|-11111-----------|----------------|
Maybe we can start a little repertory movie house or something...she said

F                                              G   F                 C
sorry, but I think you might be just projecting     (but here's the dough)

Interlude
e|-xx8--xx8--xx8--xx8--|-xx3-xx3-xx3-xx3-|
b|-xx10-xx10-xx10-xx10-|-xx3-xx3-xx3-xx3-|
g|-xx9--xx9--xx9--xx9--|-xx4-xx4-xx4-xx4-|
d|-xx10-xx10-xx10-xx10-|-xx5-xx5-xx5-xx5-|
a|---------------------|-----------------|
e|---------------------|-----------------|
Pike   Street         to    Park  Slope


e|-x1-x1-x1-x1-x1-x1-x1-x1-|-x1-x1-x1-x1-x1-x1-x1-x1-|
b|-x1-x1-x1-x1-x1-x1-x1-x1-|-x1-x1-x1-x1-x1-x1-x1-x1-|
g|-x2-x2-x2-x2-x2-x2-x2-x2-|-x2-x2-x2-x2-x2-x2-x2-x2-|
d|-x3-x3-x3-x3-x3-x3-x3-x3-|-x3-x3-x3-x3-x3-x3-x3-x3-|
a|-------------------------|-------------------------|
e|-------------------------|-------------------------|
Brooklyn

Verse2:
C - C - Em - F x2

C
"A community of dabblers who are vain and fond of biting backs
Em           F
('we hate it when our friends become successful')
C
And a different school whose energies are spent evading income tax...
Em      F
And silicone enhancements by the breastful.

Chorus:
e|----------------|----------------|-----------------|----------------|
b|----------------|----------------|-----------------|----------------|
g|----------------|----------------|-----------------|----------------|
d|----------------|----------------|-----------------|-55555----------|
a|-33333----------|-55555----------|-33333-----------|-33333----------|
e|-11111----------|-33333----------|-11111-----------|----------------|
Maybe we can start a little repertory movie house or something...she said

F                                               G
sorry, but I think you might be just projecting onto me
F              C
Why don't you try LA

Interlude
e|-xx8--xx8--xx8--xx8--|-xx3-xx3-xx3-xx3-|
b|-xx10-xx10-xx10-xx10-|-xx3-xx3-xx3-xx3-|
g|-xx9--xx9--xx9--xx9--|-xx4-xx4-xx4-xx4-|
d|-xx10-xx10-xx10-xx10-|-xx5-xx5-xx5-xx5-|
a|---------------------|-----------------|
e|---------------------|-----------------|
Pike   Street         to    Park  Slope


e|-x1-x1-x1-x1-x1-x1-x1-x1-|-x1-x1-x1-x1-x1-x1-x1-x1-|
b|-x1-x1-x1-x1-x1-x1-x1-x1-|-x1-x1-x1-x1-x1-x1-x1-x1-|
g|-x2-x2-x2-x2-x2-x2-x2-x2-|-x2-x2-x2-x2-x2-x2-x2-x2-|
d|-x3-x3-x3-x3-x3-x3-x3-x3-|-x3-x3-x3-x3-x3-x3-x3-x3-|
a|-------------------------|-------------------------|
e|-------------------------|-------------------------|
Brooklyn

Bridge
C-C-Em-F x2

C/ (single hit)          C/
"Well when you like something, it's an opinion
Em/                      F/
But when i like something, it's a manifesto."
C                                               Em                   F
pomposity is when you always think you're right and arrogance is when youknow

Chorus:
e|----------------|----------------|-----------------|----------------|
b|----------------|----------------|-----------------|----------------|
g|----------------|----------------|-----------------|----------------|
d|----------------|----------------|-----------------|-55555----------|
a|-33333----------|-55555----------|-33333-----------|-33333----------|
e|-11111----------|-33333----------|-11111-----------|----------------|
Maybe we can start a little independent repertory movie house or something...she said

F                                               G
sorry, but I think you might be just protecting your investment
F              C
Or else assigning the blame

Outro
e|-xx8--xx8--xx8--xx8--|-xx3-xx3-xx3-xx3-|-1~---------------|
b|-xx10-xx10-xx10-xx10-|-xx3-xx3-xx3-xx3-|-1~---------------|
g|-xx9--xx9--xx9--xx9--|-xx4-xx4-xx4-xx4-|-2~---------------|
d|-xx10-xx10-xx10-xx10-|-xx5-xx5-xx5-xx5-|-3~---------------|
a|---------------------|-----------------|------------------|
e|---------------------|-----------------|------------------|
Pike   Street         to    Park       Slope...


and there you have it
I tried to be as through as I could....
and remember to watch out for UFOs on Tuesday

LiveInternet