AllChordsTabs.com

Kina Grannis - For Now (First Version) Chords and Tabs


Artists:
Chords and Tabs » K » Kina Grannis - For Now (First Version)

Kina Grannis - For Now (First Version)

Kina Grannis - For Now (First Version) Chords / Tabs

Kina Grannis - For Now First Version: chords and tabs for the song. Watch chords and tablatures for all songs of the singer (group) Kina Grannis. Other chords and tabs for the "For Now " can find at the bottom of the page.

[Intro]
e|--------1--------1--------1--------1--------1--------1--------1--------1--|
B|----1--------1--------1--------1--------1--------1--------1--------1------|
G|------2--------0--------2--------2--------2--------0--------2--------2----|
D|--3--------2--------3--------0--------3--------2--------3--------0--------|
A|--------------------------------------------------------------------------|
E|--------------------------------------------------------------------------|

[Verse]
F
e|--------1--------1--------1--------1--------1--------1--------1--------1--|
B|----1--------1--------1--------1--------1--------1--------1--------1------|
G|------2--------0--------2--------2--------2--------0--------2--------0----|
D|--3--------2--------3--------0--------3--------2--------3--------2--------|
A|--------------------------------------------------------------------------|
E|--------------------------------------------------------------------------|
Sometimes I think about the ones that we've replaced,      all the
Dm                C                Bb
e|--------1--------1--------1--------1--------1--------1--------1--------1--|
B|----3--------1--------1--------1--------3--------3--------3--------3------|
G|------2--------0--------0--------0--------3--------3--------3--------3----|
D|--0--------0--------------------------------------------------------------|
A|--------------------3--------3--------1--------1--------1--------1--------|
E|--------------------------------------------------------------------------|
Millions           underneath the burnt and waste
F
e|--------1--------1--------1--------1--------1--------1--------1--------1--|
B|----1--------1--------1--------1--------1--------1--------1--------1------|
G|------2--------0--------2--------2--------2--------0--------2--------0----|
D|--3--------2--------3--------0--------3--------2--------3--------2--------|
A|--------------------------------------------------------------------------|
E|--------------------------------------------------------------------------|
And I get sad because of course we'll be the same,         all of
Dm                 C                                Bb
e|--------1--------1--------1--------1--------1--------1--------1--------1--|
B|----3--------1--------1--------1--------3--------3--------3--------3------|
G|------2--------0--------0--------0--------3--------3--------3--------3----|
D|--0--------0--------------------------------------------------------------|
A|--------------------3--------3--------1--------1--------1--------1--------|
E|--------------------------------------------------------------------------|
History        collapsing in its wake                 Oooh

[Chorus]
Bb                                   F                      C
e|--------1--------1--------1--------1--------1--------1--------1--------1--|
B|----3--------3--------3--------3--------1--------1--------1--------1------|
G|------3--------3--------3--------3--------2--------0--------0--------0----|
D|--------------------------------------3--------3--------------------------|
A|--1--------1--------1--------1--------------------------3--------3--------|
E|--------------------------------------------------------------------------|
Maybe it's enough that I have laid here
Bb                                  F                 C
e|--------1--------1--------1--------1--------1--------1--------1--------1--|
B|----3--------3--------3--------3--------1--------1--------1--------1------|
G|------3--------3--------3--------3--------2--------0--------0--------0----|
D|--------------------------------------3--------3--------------------------|
A|--1--------1--------1--------1--------------------------3--------3--------|
E|--------------------------------------------------------------------------|
Maybe it's enough that I have known inside my head,   and
Bb                                  Dm                C
e|--------1--------1--------1--------1--------1--------1--------1--------1--|
B|----3--------3--------3--------3--------3--------1--------1--------1------|
G|------3--------3--------3--------3--------2--------0--------0--------0----|
D|--------------------------------------0--------0--------------------------|
A|--1--------1--------1--------1--------------------------3--------3--------|
E|--------------------------------------------------------------------------|
Maybe it's enough to know that we were here together
Bb                 C                 F                 Dm
e|--------1--------1--------1--------1--------1--------1--------1--------1--|
B|----3--------3--------1--------1--------1--------1--------3--------1------|
G|------3--------3--------0--------0--------2--------0--------2--------0----|
D|--------------------------------------3--------2--------0--------0--------|
A|--1--------1--------3--------3--------------------------------------------|
E|--------------------------------------------------------------------------|
And that we are the ones,           we are the ones
Bb                C                   F
e|--------1--------1--------------------------1--------1--------1--------1--|
B|----3--------3--------------------------1--------1--------1--------1------|
G|------3--------3--------------------------2--------2--------2--------2----|
D|--------------------------------------3--------3--------3--------3--------|
A|--1--------1--------3-----------------------------------------------------|
E|--------------------------------------------------------------------------|
We are the ones               for now

[Verse]
F
e|--------1--------1--------1--------1--------1--------1--------1--------1--|
B|----1--------1--------1--------1--------1--------1--------1--------1------|
G|------2--------0--------2--------2--------2--------0--------2--------0----|
D|--3--------2--------3--------0--------3--------2--------3--------2--------|
A|--------------------------------------------------------------------------|
E|--------------------------------------------------------------------------|
I heard that someday when they look up at the night.       they'll see
Dm                C                Bb
e|--------1--------1--------1--------1--------1--------1--------1--------1--|
B|----3--------1--------1--------1--------3--------3--------3--------3------|
G|------2--------0--------0--------0--------3--------3--------3--------3----|
D|--0--------0--------------------------3--------3--------3--------3--------|
A|--------------------3--------3--------------------------------------------|
E|--------------------------------------------------------------------------|
Nothing but a black and starless sky
F
e|--------1--------1--------1--------1--------1--------1--------1--------1--|
B|----1--------1--------1--------1--------1--------1--------1--------1------|
G|------2--------0--------2--------2--------2--------0--------2--------0----|
D|--3--------2--------3--------0--------3--------2--------3--------2--------|
A|--------------------------------------------------------------------------|
E|--------------------------------------------------------------------------|
And they'll tell stories of some old and callow time,      claiming
Dm                C                Bb
e|--------1--------1--------1--------1--------1--------1--------1--------1--|
B|----3--------1--------1--------1--------3--------3--------3--------3------|
G|------2--------0--------0--------0--------3--------3--------3--------3----|
D|--0--------0--------------------------3--------3--------3--------3--------|
A|--------------------3--------3--------------------------------------------|
E|--------------------------------------------------------------------------|
Spectacles of brilliant burning lights                Oooh

[Chorus]
Bb                                   F                      C
e|--------1--------1--------1--------1--------1--------1--------1--------1--|
B|----3--------3--------3--------3--------1--------1--------1--------1------|
G|------3--------3--------3--------0--------2--------0--------0--------0----|
D|--------------------------------------3--------3--------------------------|
A|--1--------1--------1--------1--------------------------3--------3--------|
E|--------------------------------------------------------------------------|
Maybe it's enough that I have laid here
Bb                                  F                 C
e|--------1--------1--------1--------1--------1--------1--------1--------1--|
B|----3--------3--------3--------3--------1--------1--------1--------1------|
G|------3--------3--------3--------3--------2--------0--------0--------0----|
D|--------------------------------------3--------3--------------------------|
A|--1--------1--------1--------1--------------------------3--------3--------|
E|--------------------------------------------------------------------------|
Maybe it's enough that I have known inside my head,   and
Bb                                 Dm                C
e|--------1--------1--------1--------1--------1--------1--------1--------1--|
B|----3--------3--------3--------3--------3--------1--------1--------1------|
G|------3--------3--------3--------3--------2--------0--------0--------0----|
D|--------------------------------------0--------0--------------------------|
A|--1--------1--------1--------1--------------------------3--------3--------|
E|--------------------------------------------------------------------------|
Maybe it's enough to know that we were here together
Bb                 C                 F                 Dm
e|--------1--------1--------1--------1--------1--------1--------1--------1--|
B|----3--------3--------1--------1--------1--------1--------3--------1------|
G|------3--------3--------0--------0--------2--------0--------2--------0----|
D|--------------------------------------3--------2--------0--------0--------|
A|--1--------1--------3--------3--------------------------------------------|
E|--------------------------------------------------------------------------|
And that we are the ones,           we are the ones
Bb                 C                 F
e|--------1--------1--------1--------1--------1--------1--------1--------1--|
B|----3--------3--------1--------1--------1--------1--------1--------1------|
G|------3--------3--------0--------0--------2--------2--------2--------0----|
D|--------------------------------------3--------3--------3--------2--------|
A|--1--------1--------3--------3--------------------------------------------|
E|--------------------------------------------------------------------------|
We are the ones               for now                 Oooh

Bb                C                 Dm
e|--------1--------1--------1--------1--------1--------1--------1--------1--|
B|----3--------3--------1--------1--------3--------3--------3--------1------|
G|------3--------3--------0--------0--------2--------2--------2--------0----|
D|--------------------------------------0--------0--------0--------0--------|
A|--1--------1--------3--------3--------------------------------------------|
E|--------------------------------------------------------------------------|
Oooh
Dm                C                 Dm
e|--------1--------1--------1--------1--------1--------1--------1--------1--|
B|----3--------1--------1--------1--------3--------3--------3--------1------|
G|------2--------0--------0--------0--------2--------2--------2--------0----|
D|--0--------0--------------------------0--------0--------0--------0--------|
A|--------------------3--------3--------------------------------------------|
E|--------------------------------------------------------------------------|
Oooh                                                      Aaah

Dm                C                 Dm
e|--------1--------1--------1--------1--------1--------1--------1--------1--|
B|----3--------1--------1--------1--------3--------3--------3--------1------|
G|------2--------0--------0--------0--------2--------2--------2--------0----|
D|--0--------0--------------------------0--------0--------0--------0--------|
A|--------------------3--------3--------------------------------------------|
E|--------------------------------------------------------------------------|

Dm                                  C
e|--------1--------1--------1--------1--------1--------1--------------------|
B|----3--------3--------3--------1--------1--------1------------------------|
G|------2--------2--------2--------0--------0--------0----------------------|
D|--0--------0--------0--------0--------------------------------------------|
A|--------------------------------------3--------3--------------------------|
E|--------------------------------------------------------------------------|
Mmmm

[Verse]
F
e|--------1--------1--------1--------1--------1--------1--------1--------1--|
B|----1--------1--------1--------1--------1--------1--------1--------1------|
G|------2--------0--------2--------2--------2--------0--------2--------0----|
D|--3--------2--------3--------0--------3--------2--------3--------2--------|
A|--------------------------------------------------------------------------|
E|--------------------------------------------------------------------------|
So maybe this is what it takes to realize
Dm                C                Bb
e|--------1--------1--------1--------1--------1--------1--------1--------1--|
B|----3--------1--------1--------1--------3--------3--------3--------3------|
G|------2--------0--------0--------0--------3--------3--------3--------3----|
D|--0--------0--------------------------------------------------------------|
A|--------------------3--------3--------1--------1--------1--------1--------|
E|--------------------------------------------------------------------------|
I am grateful just that I have been alive
F
e|--------1--------1--------1--------1--------1--------1--------1--------1--|
B|----1--------1--------1--------1--------1--------1--------1--------1------|
G|------2--------0--------2--------2--------2--------0--------2--------0----|
D|--3--------2--------3--------0--------3--------2--------3--------2--------|
A|--------------------------------------------------------------------------|
E|--------------------------------------------------------------------------|
And I'll be happy if I look back on my life
Dm                C                Bb
e|--------1--------1--------1--------1--------1--------1--------1--------1--|
B|----3--------1--------1--------1--------3--------3--------3--------3------|
G|------2--------0--------0--------0--------3--------3--------3--------3----|
D|--0--------0--------------------------------------------------------------|
A|--------------------3--------3--------1--------1--------1--------1--------|
E|--------------------------------------------------------------------------|
Been a sister, been a mother, been a wife                 Oooh

[Chorus]
Strums
Bb                                   F                      C
e|--------------------------------------1-----------------1-----------------|
B|--------------------------------------1-----------------1-----------------|
G|--------------------------------------------------------------------------|
D|--------------------------------------3-----------------------------------|
A|--1-----------------------------------------------------3-----------------|
E|--------------------------------------------------------------------------|
Maybe it's enough that I have       laid here
Bb                                   F                      C
e|--------------------------------------1-----------------1-----------------|
B|--3-----------------------------------1-----------------1-----------------|
G|--3-----------------------------------------------------------------------|
D|--------------------------------------3-----------------------------------|
A|--1-----------------------------------------------------3-----------------|
E|--------------------------------------------------------------------------|
Maybe it's enough that I have       known inside my head, and
Bb                                  Dm                C
e|--------1--------1--------1--------1--------1--------1--------1--------1--|
B|----3--------3--------3--------3--------3--------1--------1--------1------|
G|------3--------3--------3--------3--------2--------0--------0--------0----|
D|--------------------------------------0--------0--------------------------|
A|--1--------1--------1--------1--------------------------3--------3--------|
E|--------------------------------------------------------------------------|
Maybe it's enough to know that we were here together
Bb                 C                 F                 Dm
e|--------1--------1--------1--------1--------1--------1--------1--------1--|
B|----3--------3--------1--------1--------1--------1--------3--------1------|
G|------3--------3--------0--------0--------2--------0--------2--------0----|
D|--------------------------------------3--------2--------0--------0--------|
A|--1--------1--------3--------3--------------------------------------------|
E|--------------------------------------------------------------------------|
And that we are the ones,           we are the ones
Bb                 C                 F
e|--------1--------1--------------------------------------------------------|
B|----3--------3------------------------------------------------------------|
G|------3--------3----------------------------------------------------------|
D|--------------------------------------3-----------------------------------|
A|--1--------1--------3-----------------------------------------------------|
E|--------------------------------------------------------------------------|
We are the ones               for now

LiveInternet