AllChordsTabs.com

Born Of Osiris - Xiv (First Version) Chords and Tabs


Artists:
Chords and Tabs » B » Born Of Osiris - Xiv (First Version)

Born Of Osiris - Xiv (First Version)

Born Of Osiris - Xiv (First Version) Chords / Tabs

Born Of Osiris - Xiv First Version: chords and tabs for the song. Watch chords and tablatures for all songs of the singer (group) Born Of Osiris. Other chords and tabs for the "Xiv" can find at the bottom of the page.

(Intro)
Whats up my nigga's?? Apparently there are NO actual tabs for this song, so here is the
actual tab. (By "actual", i mean not guitar pro formatted.) I've had a few requests to
post it, so here it is! Enjoy.


Tuning: Standard 'E' (EADGBE) *remember: they use 7-string tuned to drop A or drop G or
whatever but this is for 6-string.*

intro starts with cool acoustic guitar:) then a little bit later comes this...

|------------13h18p13------13h19p13--------------------13h14p13-------|
|----------16--------16--16--------16----------------16--------16--16-|
|--------15------------15------------15------------15------------15---|
|------16------------------------------16--------16-------------------|
|-13h18----------------------------------18p13h18---------------------|
|---------------------------------------------------------------------|

T
|-14h18p14-----------------14h18-23p18------18-22p17------17-1713-----|
|---------16-------------16-----------19--19--------18--18--------15---|
|-----------15---------15---------------20------------19------------14-|
|-------------16-----16------------------------------------------------|
|---------------18-18--------------------------------------------------|
|----------------------------------------------------------------------|

|---13-1310------10-105-----------5h10p5---5h10p5---5h9p5---5h11p6---|
|-15--------10--10-------6---------6------6-6------6-6-----6-6------7--|
|-------------10----------7-------7--------7--------7-------7--------8-|
|--------------------------7-----7-------------------------------------|
|---------------------------8p5h8--------------------------------------|
|----------------------------------------------------------------------|

|----------6h11p6---6h7p6---6h14p11------------------11h18p14----------|
|---------7------7-7-----7-7-------11--------------11--------16--------|
|--------8--------8-------8----------11----------11------------15------|
|-8-----8------------------------------13------13----------------16----|
|--9p6h9---------------------------------13--13--------------------18--|p
|------------------------------------------11--------------------------|

|------------18p17p13--------------------------13h17p13-18-2217-------|
|----------16--------15----------------------15-----------------18-----|
|--------15------------14------------14-15-14---------------------19---|
|------16----------------15--------15-------------------------------19-|
|-13h18--------------------17p12h17------------------------------------|
|----------------------------------------------------------------------|

|---------------17h18p17-15-13-----------------------------------------|
|-------------18--------------17-15-13---------------------------------|
|-----------19------------------------15-14-12-------------------------|
|---------19----------------------------------15-14-12-----------------|
|-20p17h20--------------------------------------------15-13-12---------|
|-------------------------------------------------------------15-13-12-|
pm                                    .  .  .  .  .  . .  .  .  . .  .

and when you thought the madness was over, Jason Richardson continues with..

|--------8h15p11--------------------11h15p11------11h16p11------11h15p11-|
|-------8-------13----------------13--------13--13--------13--13---------|
|------8----------12------------12------------12------------12-----------|
|----10-------------13--------13-----------------------------------------|
|--10-----------------15p10h15-------------------------------------------|
|-8----------------------------------------------------------------------|

|-------11-15-11-13-15-13-11-16-13-15-16-15-13-18p13------13h20p13-------|
|-13--13--------------------------------------------14--14--------14--14-|
|---12------------------------------------------------15------------15---|
|------------------------------------------------------------------------|
|------------------------------------------------------------------------|
|------------------------------------------------------------------------|

|-13-13p9-------------------9--9p6-----------------8h11p8--------------|
|--------11---------------11-11---6-------6-------9------9-------------|
|----------10-----------10---------6-----6-------8--------8------------|
|------------11-------11------------8---8------10----------10-------12-|
|--------------13p8h13---------------8-8---6h11--------------11p8h13---|
|-------------------------------------6--------------------------------|

|-----10h13p10------10h15p10-----------------10h16p11-----------------|
|---11--------11--11--------11-------------11--------13---------------|
|-10------------10------------12---------12------------12-------------|
|-------------------------------12-----12----------------13-----------|
|---------------------------------13-13--------------------15-16~~~~~-|
|---------------------------------------------------------------------|

difficulty. You guys have fun with this, it took me 3 hours to tab it. and also, a shout out to
my bud, Davey. You better try as hard as you can little man:)

LiveInternet