AllChordsTabs.com

Lincoln Brewster - The Love Of God (Second Version) Chords and Tabs


Artists:
Chords and Tabs » L » Lincoln Brewster - The Love Of God (Second Version)

Lincoln Brewster - The Love Of God (Second Version)

Lincoln Brewster - The Love Of God (Second Version) Chords / Tabs

Lincoln Brewster - The Love Of God Second Version: chords and tabs for the song. Watch chords and tablatures for all songs of the singer (group) Lincoln Brewster. Other chords and tabs for the "The Love Of God" can find at the bottom of the page.

The Love of God
Lincoln Brewster


Once you get the pattern down, this becomes a fairly simple, beautiful piece.
I like to play it fretting with my pinky on the B string and middle finger on
the A string, plucking with my thumb, middle finger and ring finger.

Capo II

Intro
e|----0-------0-------0------0-----0-----0-----0----0---|
B|-13---13-12---12-10---10-8---8-6---6-5---5-3--3-3---3-|
G|------------------------------------------------------|
D|------------------------------------------------------|
A|-12------10------8-------7-----5-----3-----2----2-----|
E|------------------------------------------------------|

e|---0-----0-----0-----0---0---0-----0-----0---------0---0-----|
B|-1---1-3---3-5---5-6---5---3---3-3---3-1---1-----3---1---1-1-|
G|-------------------------------------------------------------|
D|-------------------------------------------------------------|
A|-0-----2-----3-----5---3---2-----2-----0-----0/2-----0-----0-|
E|-------------------------------------------------------------|

Verse
e|----0-----0-----0------0-------0-------0-------0------0-------|
B|--5---5-6---6-8---8-10---10-13---13-12---12-10---10-8---8-----|
G|.-------------------------------------------------------------|
D|.-------------------------------------------------------------|
A|--3-----5-----7-----8-------12------10------8-------7---------|
E|--------------------------------------------------------------|

Tag
e|---0-----0-----0-----0-----||---0-----0-----0-----0---|
B|-6---6-6---6-3---3-3---3---||-1---1-3---3-5---5-5---5-|
G|--------------------------.||-------------------------|
D|--------------------------.||-------------------------|
A|-5-----5-----2-----2-------||-0-----2-----3-----3-----|
E|---------------------------||-------------------------|

e|---0-----0-----0--------|
B|-6---6-6---6-3---3-3----|
G|------------------------|
D|------------------------|
A|-5-----5-----2-----2----|
E|------------------------|

Repeat Intro
Repeat Verse

Solo
(which I haven't worked out yet)

Play Tag 3X
Repeat Intro (first half twice, ending on Am)

LiveInternet