AllChordsTabs.com

The Prize Fighter Inferno - Half Measures (First Version) Chords and Tabs


Artists:
Chords and Tabs » T » The Prize Fighter Inferno - Half Measures (First Version)

The Prize Fighter Inferno - Half Measures (First Version)

The Prize Fighter Inferno - Half Measures (First Version) Chords / Tabs

The Prize Fighter Inferno - Half Measures First Version: chords and tabs for the song. Watch chords and tablatures for all songs of the singer (group) The Prize Fighter Inferno. Other chords and tabs for the "Half Measures" can find at the bottom of the page.

-------------------------------------------------------------------------------
-------------------------------------------------------------------------------

Tuning: Half-step up (F A# D# g# c f)
or alternatively you can use a capo on 1st fret.

Hey, it's been a while since I've tabbed a song, I think this one is just
amazing and I hope you enjoy it. Any comments, questions, suggestions,
requests or whatever you can e-mail me.

Intro/verses
F |----------------------------------2-----0--------|
C |-8-----10-----7-------8---------3---3-----3---3--|
G#|---0------0-----0-------0-----0-------------0----|
D#|-----0------0-----0-------0----------------------|
A#|-7-----7------5-----5-------3---------3----------|
F |-------------------------------------------------|

F |----------------------------------0--------------|
C |-8-----10-----7-------8---------3---3---1-----0--|
G#|---0------0-----0-------0-----0-----------0------|
D#|-----0------0-----0-------0-----------------0----|
A#|-7-----7------5-----5-------3---------3----------|
F |-------------------------------------------------|


Chorus
F |--------------------------|
C |--------------------------|
G#|-------------------0------|
D#|-----7-----0-----2---2----| x3
A#|---5-----7-----2-------2--|
F |-3-----5-----0------------|


F |-------0------------------|
C |-3-------3---1-----0---1--|
G#|---0-----------0-----0----|
D#|--------------------------| x3
A#|-3---3-----3-----3--------|
F |--------------------------|

Bridge
F |--------------------------------------------------|
C |-0-----5-----------0-----------0-----------5------|
G#|---5-----5-------5---5-------7---7-------7---7----| only play this
D#|-----5-----5---5-------5---7-------7---7-------7--| the 1st time
A#|-3-----------3-----------5-----------5------------|
F |--------------------------------------------------|

F |--------------------------------------------------|
C |-------0-----------5-----------0-----------5------|
G#|-----5---5-------5---5-------7---7-------7---7----| the rest of
D#|---5-------5---5-------5---7-------7---7-------7--| bridge goes
A#|-3-----------3-----------5-----------5------------| like this
F |--------------------------------------------------|


************************************

| /   slide up
|    slide down
| h   hammer-on
| p   pull-off
| ~   vibrato
| +   harmonic
| x   Mute note
| b   Bend
| pb  Pre-bend
| br  Bend release
| pbr Pre-bend release
| brb Bend release bend

************************************

LiveInternet