AllChordsTabs.com

France Gall - Poupe De Cire Poupe De Son (First Version) Chords and Tabs


Artists:
Chords and Tabs » F » France Gall - Poupe De Cire Poupe De Son (First Version)

France Gall - Poupe De Cire Poupe De Son (First Version)

France Gall - Poupe De Cire Poupe De Son (First Version) Chords / Tabs

France Gall - Poupe De Cire Poupe De Son First Version: chords and tabs for the song. Watch chords and tablatures for all songs of the singer (group) France Gall. Other chords and tabs for the "Poupe De Cire Poupe De Son" can find at the bottom of the page.

Track: PoupГ©e de Cire PoupГ©e de Son


INTRO (transcribed for guitar)

C
e|----8---8---8---8---8---8---8---8---8---8---8---8---8--------------------|
B|--9---9---8---6----------------------------------------------------------|
G|------------------8---6---5---6---5---6---5------------------------------|
D|-------------------------------------------------------------------------|
A|-------------------------------------------------------------------------|
E|-------------------------------------------------------------------------|

e|---/8-----8---8---8------------------------------------------------------|
B|------11----9---8--------------------------------------------------------|
G|---------------------10--------------------------------------------------|
D|-------------------------------------------------------------------------|
A|-------------------------------------------------------------------------|
E|-------------------------------------------------------------------------|


Riff 1
e|-------------------------------------------------------------------------|
B|-------------------------------------------------------------------------|
G|-------------------------------------------------------------------------|
D|--------1---3--3---------------------------------------------------------|
A|----3--------------------------------------------------------------------|
E|-------------------------------------------------------------------------|



Fm                          C#            Ab
Je suis une poupГ©e de cire, une poupГ©e de son

F#                       Fm
Mon coeur est gravГ© dans mes chansons

G        C      Fm
PoupГ©e de cire, poupГ©e de son


Riff 1
Fm                              C#                 Ab
Suis-je meilleure, suis-je pire qu'une poupГ©e de salon?

F#                Fm
Je vois la vie en rose bonbon

G        C      Fm
PoupГ©e de cire, poupГ©e de son



Ab               C#        Fm
Mes disques sont un miroir dans

Fm            C       Fm
Lequel chacun peut me voir

Ab         C#        Fm
Je suis partout Г  la fois

Fm            C         Fm
BrisГ©e en mille Г©clats de voix



Riff 1

Fm                            C#                 Ab
Autour de moi, j'entends rire les poupГ©es de chiffon


F#                     Fm
Celles qui dansent sur mes chansons

G        C      Fm
PoupГ©e de cire, poupГ©e de son


Fm                        C#                   Ab
Elles se laissent sГ©duire pour un oui, pour un non


F#                    Fm
L'amour n'est pas que dans les chansons

G        C      Fm
PoupГ©e de cire, poupГ©e de son


SOLO

Fm              C#       Ab
e|-------------------------------------------------------------------------|
B|---9-9-8-6---------6-6-4-------------------------------------------------|
G|------------8-6-5---------3h5--------------------------------------------|
D|------------------------6------------------------------------------------|
A|-------------------------------------------------------------------------|
E|-------------------------------------------------------------------------|

F#            Fm              G   C   Fm
e|----------------------4------3/4-3-3-------------------------------------|
B|--------------------6------6---------3-3---------------------------------|
G|----3--3-5-6-5-3-5-----------------------5-------------------------------|
D|-------------------------------------------------------------------------|
A|-------------------------------------------------------------------------|
E|-------------------------------------------------------------------------|

Fm              C#       Ab
e|-------------------------------------------------------------------------|
B|---9-9-8-6---------6-6-4-------------------------------------------------|
G|------------8-6-5---------3h5--------------------------------------------|
D|------------------------6------------------------------------------------|
A|-------------------------------------------------------------------------|
E|-------------------------------------------------------------------------|

F#            Fm              G   C   Fm
e|----------------------4------3/4-3-3-------------------------------------|
B|--------------------6------6---------5-5-6-------------------------------|
G|----3--3-5-6-5-3-5-------------------------------------------------------|
D|-------------------------------------------------------------------------|
A|-------------------------------------------------------------------------|
E|-------------------------------------------------------------------------|



Ab               C#        Fm
Mes disques sont un miroir dans

Fm            C       Fm
Lequel chacun peut me voir

Ab         C#        Fm
Je suis partout Г  la fois

Fm            C         Fm
BrisГ©e en mille Г©clats de voix


Riff 1
Fm                        C#                 Ab
Seule parfois je soupire, je me dis: "ГЂ quoi bon

F#                     Fm
"Chanter ainsi l'amour sans raison

G        C          Fm
"Sans rien connaître des garçons?"

Fm                               C#               Ab
Je n'suis qu'une poupГ©e de cire, qu'une poupГ©e de son

F#                     Fm
Sous le soleil de mes cheveux blonds

G        C      Fm
PoupГ©e de cire, poupГ©e de son

F#                     Fm
Mais un jour je vivrai mes chansons

G        C      Fm
PoupГ©e de cire, poupГ©e de son

F#                     Fm
Sans craindre la chaleur des garçons

G        C      Fm
PoupГ©e de cire, poupГ©e de son

LiveInternet