AllChordsTabs.com

The Last Shadow Puppets - Used To Be My Girl (First Version) Chords and Tabs


Artists:
Chords and Tabs » T » The Last Shadow Puppets - Used To Be My Girl (First Version)

The Last Shadow Puppets - Used To Be My Girl (First Version)

The Last Shadow Puppets - Used To Be My Girl (First Version) Chords / Tabs

The Last Shadow Puppets - Used To Be My Girl First Version: chords and tabs for the song. Watch chords and tablatures for all songs of the singer (group) The Last Shadow Puppets. Other chords and tabs for the "Used To Be My Girl " can find at the bottom of the page.

[Main Riff]

e|---------------------------------------------------------------------------|
B|---------------------------------------------------------------------------|
G|---------------------------------------------------------------------------|
D|---2---2---2----2---2---2--------------------------------------------------|
A|---------1------------1-----0--0-1-0---0-----------------------------------|
E|-0---0--------0---0------------------3-------------------------------------|

You can also play this riff up the neck like this...

e|---------------------------------------------------------------------------|
B|---------------------------------------------------------------------------|
G|---------------------------------------------------------------------------|
D|---------------------------------------------------------------------------|
A|---7---7---7----7---7---7--------------------------------------------------|
E|-0---0---6----0---0---6----5--5-6-5-3-5------------------------------------|

[Intro]

E A


[Verse 1]

E                  A
Colour pictures of re-entry
E                       A
Voices calling down the hall
E
I wanted you to know
G
You're the only one that bent me
E
This far out of shape
A
Don't make no mistake
E
I'm a liar, I'm a cheat
G
A leech, a thief
E                               A
The outside looks no good and there ain't nothing underneath
E
Darling can't you see
G
My heart melted in the heat
E                                A
My heart melted in the heat like yours


[Solo]

e|-------------------------------------------------------------------|
B|-10-10^br12-108-8-7-5-7---------12-11-10-8-5-8-10-11-12-11-12-8---|
G|--------------------------4~~~~------------------------------------| x2
D|-------------------------------------------------------------------|
A|-------------------------------------------------------------------|
E|-------------------------------------------------------------------|



[Break]

E G E A x2


[Verse 2]

E                        G
First impressions of the century
E                  A
Two way mirror one way street
E
Good cop bad cop routine
G
Black-light animal print boogie
E
Left in a heap
A
A kiss on either cheek
E
I'm a phoney, I'm a fake
A fraud, a snake
A
Gimme all your love so I can fill you up with hate
E
Girl I'm in a state
G
My heart melted yesterday
E                           G
My heart melted yesterday like yours


[Verse 3]

E
The odyssey
G       E
Came down kind of hard on me
A
The here and now so suddenly
A#                 E     G
Became a different world
E                        G
Finally I slipped out of reality
E              A
It must all be imaginary
A#                E
She used to be my girl


[Outro]

G             C   E
Used to be my girl
C   E
Used to be my girl
G             C   E
Used to be my girl
C
Used to be my girl

E G x4

LiveInternet