AllChordsTabs.com

Mads Langer - Killer (First Version) Chords and Tabs


Artists:
Chords and Tabs » M » Mads Langer - Killer (First Version)

Mads Langer - Killer (First Version)

Mads Langer - Killer (First Version) Chords / Tabs

Mads Langer - Killer First Version: chords and tabs for the song. Watch chords and tablatures for all songs of the singer (group) Mads Langer. Other chords and tabs for the "Killer" can find at the bottom of the page.

soundcloud.com/ginnemarker/

Mads Langer
Mads Langer

capo 3. bГҐnd


riff 1
e----3-3---------3-3-------'
B----3-3---------3-3-------'
G--0-0-0-------0-0-0-------'
D--0-0-0-------0-0-0-------'
A--2-2-2--3-2--2-2-2--3-2--'
E--3-3-3-------3-3-3-------'

riff 2
e---------------3-3----------0-0--'
B---0-0---3-3---0-0----3-3---3-3--'
G---0-0---0-0---0-0----0-0---0-0--'
D---2-2---2-2---0-0----0-0---2-2--'
A---2-2---------2-2--2-2-2-3-3-3--'
E-0-0-0-2-2-2-3-3-3---------------'

riff 3
e----0-0---0-0---0-0---3-3--'
B----1-1---1-1---1-1---3-3--'
G----2-2---2-2---0-0---4-4--'
D----2-2---------2-2---5-5--'
A--0-0-0-2-2-2-3-3-3-5-5-5--'
E---------------------------'

riff 4
e---------------------------3-3---3-3---3-3---3-3---0--0-----0--'
B---0-0---3-3---0-0---3-3---0-0---0-0---0-0---0-0---1--0-----0--'
G---0-0---0-0---0-0---0-0---0-0---0-0---0-0---0-0---0--0--0--2--'
D---2-2---2-2---2-2---2-2---0-0---0-0---0-0---0-0---2--2--0--1--'
A---2-2---2-2---2-2---------2-2---2-2---2-2---2-2---3--3--2--2--'
E-0-0-0-0-0-0-0-0-0-2-2-2-3-3-3-3-3-3-3-3-3-3-3-3---------3--0--'

c-del(riff 5):
e---------------------------------------------------------'
B----3------3------3------3------3------3------3------3---'
G--0--0---0--0---0--0---0--0---0--0---0--0---0--0---0--0--'
D---2--2---2--2---2--0---2--2---0--0---0--0---0--0---0--0-'
A---------------------------------------------------------'
E-0------0------0------2------3------3------3------3------'

e---------------------------------------0------2------3---'
B----3------3------3------3------3------------------------'
G--0--0---0--0---0--0---0--0---0--0---0--0---0--0---0--0--'
D---2--2---2--2---0--0---0--0---2--0---0--0---0--0---0--0-'
A----------------------2------3------3------3------3------'
E-0------2------3-----------------------------------------'

e-----------------------------------------------------------'
B----0------0------0------0------0------0------0------------'
G--0--0---0--0---0--0---0--0---0--0---0--0---0--0---0--0----'
D---0--0---0--0---0--0---0--0---2--2---2--2---0--0---0--0---'
A--------------------------------------------------2--------'
E-3------3------3------3------0------2------3---------------'

e----------------------------------'
B----3------3------3------3--------'
G--0--0---0--0---0--0---0--0-------'
D---0--0---0--0---0--0---0--0------'
A-3------3------3------3-----------'
E----------------------------------'

form;

intro: 4x riff 1
vers 1: 2x riff 1, 1x riff 2, 1x riff 3,
vers 2: 2x riff 1, 1x riff 2, 1x riff 1
omkvæd: 2x riff 4, 2x riff 1
vers 3: 2x riff 1, 1x riff 2, 1x riff 3,
vers 4: 2x riff 1, 1x riff 2, 1x riff 1
omkvæd: 2x riff4
c-del: 1x riff 5
omkvæd: 2x riff 4


Tekst:

vers 1:

hello life shake my hand
break my heart
open up my eyes
and let me see the beauty of the dark
eh eh eh

vers 2:

hello death i have to put you
on hold
cause im not ready
for the presence of the cold
no no (no)

Omkvæd:

and it's too late to sleep
too late to wake up
i'm caught beetwen
daylight and a dream

now i lay me down
in a bed of lies
knowing anyday
i'll be betrayed
(yearh)

vers 3:

goodbye hope i guess we're
out of luck
this time we face the facts
and finally give up
yea yea yea

vers 4:

and goodbye love
i really hate to end so sad
oh it's funny how i believed in things
we never had

omkvæd:

cause it is too late to sleep
too late to wake up
im caught beetwen
daylight and a dream

now i lay me down
in a bed of lies
knowing anyday
i'll be betrayed

c-del:

he uhh uhh uhh uuh uhh
he uhh uhh uhh uuh uhh

Omkvæd:

cause it is too late to sleep
too late to wake up
im caught beetwen
daylight and a dream

now i lay me down
in a bed of lies
knowing anyday
i'll be betrayed

LiveInternet