AllChordsTabs.com

The Summer Set - Chelsea (First Version) Chords and Tabs


Artists:
Chords and Tabs » T » The Summer Set - Chelsea (First Version)

The Summer Set - Chelsea (First Version)

The Summer Set - Chelsea (First Version) Chords / Tabs

The Summer Set - Chelsea First Version: chords and tabs for the song. Watch chords and tablatures for all songs of the singer (group) The Summer Set. Other chords and tabs for the "Chelsea" can find at the bottom of the page.

-------------------------------------------------------------------------------
-------------------------------------------------------------------------------

Tuning: Standard

Livin' Like Summer! :P
(If you like the Summer Set check out my band "Just Another Band" on iTunes or Facebook!)

INTRO

e|----------------------|
B|----------------------|
G|----------------------|
D|-----3333-3333-33-555-| X2
A|-333-1111-1111-11-333-|
E|-111------------------|

e|---------------------------------------|
B|---------------------------------------|
G|---------------------------------------|
D|-----33333-777-55555-3333-3333-5555-55-|
A|-333-11111-555-33333-1111-1111-3333-33-|
E|-111-----------------------------------|


Verse 1

e|---------------------|---------------------|------------------------------------------|
B|---------------------|---------------------|------------------------------------------|
G|----3~----------5-5--|----3~---------5-5---|------3~---7~-5~--3333-3333-5555-5555-----|
D|-3~-3~----------5-5--|-3~-3~---------5-5---|---3~-3~---7~-5~--3333-3333-5555-5555-----|
A|-3~-1~----------3-3--|-3~-1~---------3-3---|---3~-1~-555~-3~--1111-1111-3333-3333-----|
E|-1~------------------|-1~------------------|---1~----xx-------------------------------|

CHORUS   X3               POST CHORUS
e|---------------------|---------------------------------|
B|---------------------|---------------------------------|
G|-3333------5555-7777-|-----------3333-3333-5555-5------|
D|-3333-3333-5555-7777-|-----------3333-3333-5555-5------|
A|-1111-3333-3333-5555-|-----------1111-1111-3333-3------|
E|------1111-----------|---------------------------------|

INTRO X2

Synth part just for kicks. (;
e|-------------------------------------------|
B|-------------------------------------------|
G|-17-17-17-14-14-14-14-14-12-12-12-10-10-10-|
D|-x--x--x--x--x--x--x--x--x--x--x--x--x--x--|
A|-15-15-15-12-12-12-12-12-10-10-10-8--8--8--|
E|-------------------------------------------|

Verse 2

e|----------------|---------------|---------|--------------------------------------|
B|----------------|---------------|---------|--------------------------------------|
G|----3~-----5-5--|-----3~----5-5-|---Break-|//3333-3333-5555-5555\---------------|
D|-3~-3~-----5-5--|--3~-3~----5-5-|---------|//3333-3333-5555-5555\---------------|
A|-3~-1~-----3-3--|--3~-1~----3-3-|---------|//1111-1111-3333-3333\---------------|
E|-1~-------------|--1~-----------|---------|--------------------------------------|

CHORUS X3
POST CHORUS X2   (Play 2nd power chord all the way through)

BRIDGE X2
e|----------------------------|
B|----------------------------|
G|-7------3------------5------|
D|-7------3------3-----5------|
A|-5-(x8)-1-(x8)-3-----3-(x8)-|
E|---------------1-(x8)-------|

Riff X7
e|------------------------|
B|------------------------|
G|------------------------|
D|-3333------5555-7777----|
A|-1111-3333-3333-5555----|
E|------1111--------------|

CHORUS X3
POST CHORUS X1
CHORUS X3
POST CHORUS X2

END CHORD
e|----|
B|----|
G|----|
D|-3--|
A|-3--|
E|-1--|



************************************

| /   slide up
|    slide down
| h   hammer-on
| p   pull-off
| ~   vibrato
| +   harmonic
| x   Mute note
| b   Bend
| pb  Pre-bend
| br  Bend release
| pbr Pre-bend release
| brb Bend release bend

************************************

LiveInternet