AllChordsTabs.com

Lincoln Brewster - Today Is The Day (Second Version) Chords and Tabs


Artists:
Chords and Tabs » L » Lincoln Brewster - Today Is The Day (Second Version)

Lincoln Brewster - Today Is The Day (Second Version)

Lincoln Brewster - Today Is The Day (Second Version) Chords / Tabs

Lincoln Brewster - Today Is The Day Second Version: chords and tabs for the song. Watch chords and tablatures for all songs of the singer (group) Lincoln Brewster. Other chords and tabs for the "Today Is The Day" can find at the bottom of the page.

-------------------------------------------------------------------------------
-------------------------------------------------------------------------------

Tuning:stand


ok so the solo isn't 100% correct but i think it sounds pretty good. i play it at my
and it goes pretty well.  its an awesome solo good song and i hope this tab helps you out!



ok the song starts out with "ooooh ooooh"  but its just a D chord for a bit then the
band breaks in and you play... (my names for chords arnt all right)

(pre verse?)

D         B       A       G
e|---------------------------------------------------------------------------|
B|---------------------------------------------------------------------------|
G|---777--x--444--x----------------------------------------------------------|
D|---777--x--444--x--777--x---555--------------------------------------------|
A|---555--x--222--x--777--x---555--------------------------------------------|
E|----------------x--555--x---333--------------------------------------------|

(verse) this is guiar 1#, guitar 2# just plays that D chord
e|---------------------------------------------------------------------------|
B|-----7----5--7--5--7-------------------7s10--8-7----5b---------------------|
G|-----6----6--6--6--6-------(3 times)--------------9------------------------|
D|----------------------00---------------------------------------------------|
A|---------------------------------------------------------------------------|
E|---------------------------------------------------------------------------|


e|---------------------------------------------------------------------------|
B|-----7----5--7--5--7-------------------------------------------------------|
G|-----6----6--6--6--6-------(2 times?)-----9--7--9--7--9s11--9--7-----------|
D|----------------------00---------------------------------------------------|
A|---------------------------------------------------------------------------|
E|---------------------------------------------------------------------------|


(chores) listen for strumming
D      A        B     G
e|---------------------------------------------------------------------------|
B|---------------------------------------------------------------------------|
G|---7---------------4-------------------------------------------------------|
D|---7-------7-------4-----5-------------------------------------------------|
A|---5-------7-------2-----5-------------------------------------------------|
E|-----------5-------------3-------------------------------------------------|

(post chores)
e|------------3------------------3------------------3----------33333---------|
B|--------------3------------------3------------------3--------33333---------|
G|-------0--------0----------0--------0----------0------0------22222---------|
D|-----2------------2------2------------0------0---------------22222---------|
A|---2-----------------------------------------------------------------------|
E|----------------------2-------------------3--------------------------------|


then

(pre verse?)

(verse)

(chores)

(post chores)


there is this littel pre solo ditty
e|--------------------------------------------------------------------/------|
B|---11---------------------8----------------------9------------------------|
G|----9---(alot of times)---9---(alot of times)----9--(alot of times)-/------|
D|--------------------------------------------------------------------------|


and the it's time for the solo!

e|---------------------------------------------------------------------------|
B|---------------------------------------------------------------------------|
G|-------------------------------------------------9---11-7--9-6-7-----------|
D|----2s4-----4s7--5-4-----5s9--7-5---7s12--11-9b-------------------9b-------|
A|---------------------------------------------------------------------------|
E|---------------------------------------------------------------------------|

e|----12--14-------12--------------------------------------------------------|
B|-------------15------14--15---12---14--------------------------------------|
G|---------------------------------------14b---------------------------------|
D|---------------------------------------------------------------------------|
A|---------------------------------------------------------------------------|
E|---------------------------------------------------------------------------|


this part is all picked
e|---17---12----------12---17--12----------12---17--12--17--12----------12--17-12------------|
B|-----------15-14-15-------------15-14-15---------------------15-14-15----------15-14-15----|
G|-------------------------------------------------------------------------------------------|
D|-------------------------------------------------------------------------------------------|
A|-------------------------------------------------------------------------------------------|
E|-------------------------------------------------------------------------------------------|

alright, this is the part that isn't right but it works pretty well, and i like the way
sounds.  =D
e|---------------------------------------------------------------------------|
B|-----------------------------------------15--------14b--12---12h14p12------|
G|-----------------------------------14-12-----14-12---------------------12--|
D|---12-11-12-11--9b---------14--12------------------------------------------|
A|-------------------------12------------------------------------------------|
E|---------------------------------------------------------------------------|

e|---------------------------------14--------15----------17b~----------------|
B|---14p12----15p12-----17p12------------------------------------------------|
G|---------12-------12--------12------12-12-----12-12------------------------|
D|---------------------------------------------------------------------------|
A|---------------------------------------------------------------------------|
E|---------------------------------------------------------------------------|


you can eather ben this last note twice or pick it
e|---15b---------------------------------------------------------------------|
B|----------17---15b---15h17p15-15b----17bb----------------------------------|
G|---------------------------------------------------------------------------|


after the solo there is a break and you build up with that D chord again and it goes
the (chores) and (post chores) but you play through the post chores twice. and i think you
the (verse) out?


i know i talked alot in this tab but thanks for listening!


| ~  let note ring
| x  muted stings
| /  slide up
|   slide down
| h  hammer-on
| p  pull-off
| ~  vibrato
| +  harmonic
| x  Mute note
===============================================================================

LiveInternet