AllChordsTabs.com

The Dead Weather - Looking At The Invisible Man (First Version) Chords and Tabs


Artists:
Chords and Tabs » T » The Dead Weather - Looking At The Invisible Man (First Version)

The Dead Weather - Looking At The Invisible Man (First Version)

The Dead Weather - Looking At The Invisible Man (First Version) Chords / Tabs

The Dead Weather - Looking At The Invisible Man First Version: chords and tabs for the song. Watch chords and tablatures for all songs of the singer (group) The Dead Weather. Other chords and tabs for the "Looking At The Invisible Man" can find at the bottom of the page.

[Verse 1]

e|-----------------------------------|----------------------------------------|
B|-----------------------------------|----------------------------------------|
G|-----------------------------------|----------------------------------------|
D|------7/9--------7/9---------------|----------------------------------------|
A|-75--5/7---75--5/7---10-9-7------|--7-5-7---7-----5---7-5-7--10-9-7-------|
E|-53--5/7---53--5/7---------3-2-0-|-0---0---0-0-7-0---0---0----------3-2-0-|

e|----------------------------------------|----------------------------------------|
B|----------------------------------------|----------------------------------------|
G|----------------------------------------|----------------------------------------|
D|----------------------------------------|----------------------------------------|
A|--7-5-7---7-----5---7-5-7--10-9-7-------|--7-5-7---7-----5---7-5-7--10-9-7-------|
E|-0---0---0-0-7-0---0---0----------3-2-0-|-0---0---0-0-7-0---0---0----------3-2-0-|

e|---------------------------------------------------------------------------|
B|---------------------------------------------------------------------------|
G|---------------------------------------------------------------------------|
D|---------------------------------------------------------------------------|
A|--7-5-7---7-----5---7-5-7--10b---------------------------------------------|
E|-0---0---0-0-7-0---0---0---------------------------------------------------|

e|---------------------|-----------------------------------------------------|
B|---------------------|-----------------------------------------------------|
G|---------------------|-----------------------------------------------------|
D|------7/9--------7/9-|------7/9--------7/9---------------------------------|
A|-75--5/7---75--5/7-|-75--5/7---75--5/7--10-9-7-------------------------|
E|-53--5/7---53--5/7-|-53--5/7---53--5/7---------3-2-0-------------------|

e|----------------------------------------|----------------------------------------|
B|----------------------------------------|----------------------------------------|
G|----------------------------------------|----------------------------------------|
D|----------------------------------------|----------------------------------------|
A|--7-5-7---7-----5---7-5-7--10-9-7-------|--7-5-7---7-----5---7-5-7--10-9-7-------|
E|-0---0---0-0-7-0---0---0----------3-2-0-|-0---0---0-0-7-0---0---0----------3-2-0-|

e|----------------------------------------|----------------------------------------|
B|----------------------------------------|----------------------------------------|
G|----------------------------------------|----------------------------------------|
D|----------------------------------------|----------------------------------------|
A|--7-5-7---7-----5---7-5-7--10-9-7-------|--7-5-7---7-----5---7-5-7--10-9-7-------|
E|-0---0---0-0-7-0---0---0----------3-2-0-|-0---0---0-0-7-0---0---0----------3-2-0-|

e|------------------------------|--------------------------------------------|
B|------------------------------|--------------------------------------------|
G|------------------------------|--------------------------------------------|
D|------7/9--------7/9----------|------7/9--------7/9------------------------|
A|-75--5/7---75--5/7-----5----|-75--5/7---75--5/7--10-9-7----------------|
E|-53--5/7---53--5/7--5h7-7-5-|-53--5/7---53--5/7---------3-2-0----------|

e|----------------------------------------|----------------------------------------|
B|----------------------------------------|----------------------------------------|
G|----------------------------------------|----------------------------------------|
D|----------------------------------------|----------------------------------------|
A|--7-5-7---7-----5---7-5-7--10-9-7-------|--7-5-7---7-----5---7-5-7--10-9-7-------|
E|-0---0---0-0-7-0---0---0----------3-2-0-|-0---0---0-0-7-0---0---0----------3-2-0-|

e|----------------------------------------|----------------------------------------|
B|----------------------------------------|----------------------------------------|
G|----------------------------------------|----------------------------------------|
D|----------------------------------------|----------------------------------------|
A|--7-5-7---7-----5---7-5-7--10-9-7-------|--7-5-7---7-----5---7-5-7--10-9-7-------|
E|-0---0---0-0-7-0---0---0----------3-2-0-|-0---0---0-0-7-0---0---0----------3-2-0-|

e|---------------------|-----------------------------------------------------|
B|---------------------|-----------------------------------------------------|
G|---------------------|-----------------------------------------------------|
D|------7/9--------7/9-|------7/9--------------------------------------------|
A|-75--5/7---75--5/7-|-75--5/7---75-------10-9-7-------------------------|
E|-53--5/7---53--5/7-|-53--5/7---53--------------3-2-0-------------------|


[Outro]

e|----------------------------------------|----------------------------------------|
B|----------------------------------------|----------------------------------------|
G|----------------------------------------|----------------------------------------|
D|----------------------------------------|----------------------------------------|
A|--7-5-7---7-----5---7-5-7--10-9-7-------|--7-5-7---7-----5---7-5-7--10-9-7-------|
E|-0---0---0-0-7-0---0---0----------3-2-0-|-0---0---0-0-7-0---0---0----------3-2-0-|

e|----------------------------------------|----------------------------------------|
B|----------------------------------------|----------------------------------------|
G|----------------------------------------|----------------------------------------|
D|----------------------------------------|----------------------------------------|
A|--7-5-7---7-----5---7-5-7--10-9-7-------|--7-5-7---7-----5---7-5-7--10-9-7-------|
E|-0---0---0-0-7-0---0---0----------3-2-0-|-0---0---0-0-7-0---0---0----------3-2-0-|


e|---------------------------------------------------------------------------|
B|---------------------------------------------------------------------------|
G|---------------------------------------------------------------------------|
D|---------------------------------------------------------------------------|
A|---------------------------------------------------------------------------|
E|-0-------------------------------------------------------------------------|

LiveInternet