AllChordsTabs.com

A Day At The Fair - Erasing Wilks (First Version) Chords and Tabs


Artists:
Chords and Tabs » A » A Day At The Fair - Erasing Wilks (First Version)

A Day At The Fair - Erasing Wilks (First Version)

A Day At The Fair - Erasing Wilks (First Version) Chords / Tabs

A Day At The Fair - Erasing Wilks First Version: chords and tabs for the song. Watch chords and tablatures for all songs of the singer (group) A Day At The Fair. Other chords and tabs for the "Erasing Wilks" can find at the bottom of the page.

This song is very easy to play.  It is my first tab so please rate it.  This tab is
Erasing Wilks by A day at the fair from the album Rocking Chair Years.  Enjoy!

INTRO/1st Verse with about half distortion, half treble and half bass.
E|----------------------------------------------------------------------|
B|----------------------------------------------------------------------|
G|----------------------------------------------------------------------|
D|--5555555555555555/-99999999--1010101010101010------------------------|
A|--5555555555555555/-99999999--1010101010101010------------------------|
E|--3333333333333333/-77777777--8-8-8-8-8-8-8-8-------------------------|

Repeat many times 2 for the intro, about 4 for the verse.


Pre-Chorus ( "For all those drug stores and bars meant to be....)
E|-----------------------------------------------------|
B|-----------------------------------------------------|
G|-----------------------------------------------------|
D|--55555555555555---99999999999-----16sb17-17-17rb16--|  x2
A|--55555555555555---99999999999-----^only 1st time^---|
E|--33333333333333---77777777777-----------------------|
p.m-------------------------------------------------|    sb= slow bend, rb= release bend

Chorus
E|------------------------------------------------------|
B|------------------------------------------------------|
G|--6666666666666666-88888888--9-9-9-9-9-9-9-9----------| x1
D|--5555555555555555-99999999--1010101010101010---------|
A|--5555555555555555-99999999--1010101010101010---------|
E|--3333333333333333-77777777--8-8-8-8-8-8-8-8----------|
So fire up your..  gasoline and we'll burn this..

E|-----------------------------------------------------|
B|-----------------------------------------------------|
G|-----------------------------------------------------| x1
D|---99999999999--1010101010101010------99-1010--------|
A|---99999999999--1010101010101010------99-1010--------|
E|---77777777999--8-8-8-8-8-8-8-8-------77-8-8---------|
Bring the past i'll bring the lighter

E|------------------------------------------------------|
B|------------------------------------------------------|
G|--6666666666666666-88888888--9-9-9-9-9-9-9-9----------|
D|--5555555555555555-99999999--1010101010101010---------| x2
A|--5555555555555555-99999999--1010101010101010---------|
E|--3333333333333333-77777777--8-8-8-8-8-8-8-8----------|

2nd Verse
E|--------------------------------------------------------|
B|--------------------------------------------------------|
G|--------------------------------------------------------|
D|--5~-----5~-------5~-----9~------9~-----9~--------------|
A|--5~-----5~-------5~-----9~------9~-----9~--------------|
E|--3~-----3~-------3~-----7~------7~------7~-------------|


Bridge
E|-------------------------------------------------------|
B|-------------------------------------------------------|
G|-------------------------------------------------------|
D|--5~----9~-----10~------99999999-555555555-99999999----|
A|--5~----9~-----10~------99999999-555555555-99999999----|
E|--3~----7~-----8~-------77777777-333333333-77777777----|
p.m.|------------------------------|
Intro
1st Verse
Pre-Chorus
Chorus
2nd Verse
Pre-Chorus
Chorus
Bridge
Chorus
There is an outro but it is too soft for me to hear it.

LiveInternet