AllChordsTabs.com

Sixx Am - Help Is On The Way (First Version) Chords and Tabs


Artists:
Chords and Tabs » S » Sixx Am - Help Is On The Way (First Version)

Sixx Am - Help Is On The Way (First Version)

Sixx Am - Help Is On The Way (First Version) Chords / Tabs

Sixx Am - Help Is On The Way First Version: chords and tabs for the song. Watch chords and tablatures for all songs of the singer (group) Sixx Am. Other chords and tabs for the "Help Is On The Way " can find at the bottom of the page.

Intro:
e|----|---------2x-----------------------------------------| For the x's lay your finger on the 7th fret
B|----|----------------------------------------------------|           so sounds like an E
G|----|----------------------------------------------------|
D|-xx-|-3~-3--33--5--5~--5-3-55~-6/7--7--x-7~-7--7-6-5-33~-|
A|-xx-|-3~-3--33--5--5~--5-3-55~-6/7--7--x-7~-7--7-6-5-33~-|
D|-xx-|-3~-3--33--5--5~--5-3-55~-6/7--7--x-7~-7--7-6-5-33~-|

Verse (not 100%):
e|-------------------------------------3x-----------------|------------------------|
B|--------------------------------------------------------|------------------------|
G|------7--7--5-7--7--7~--7-------------------------------|-7--7--5-7--------------|
D|-(3~)-3--3--3-3--5--5~--5-3-55~-6/7--7--x-7~-7--7-6-5-3-|-3--3--3-3--5--55---xxx-|
A|-(3~)-3--3--3-3--5--5~--5-3-55~-6/7--7--x-7~-7--7-6-5-3-|-3--3--3-3--5--55---xxx-|
D|-(3~)-3--3--3-3--5--5~--5-3-55~-6/7--7--x-7~-7--7-6-5-3-|-3--3--3-3--5--55---xxx-|

Chorus:

Guitar 1
e|---------------------------------------------------------------------------------------|
B|---------------------------------------------------------------------------------------|
G|-------------5-----------------------5-----7-----------7------------------7------------|
D|-7-----3-----5--x8-5-----7-----3-----5--x8-7--x8-3-----7--x8-7------3-----7-----7------|
A|-7--x8-3--x8-3-----5--x8-7--x8-3--x8-3-----5-----3--x8-5-----7--x16-3--x8-5--x8-7--x16-|
D|-7-----3-----------5-----7-----3-----------------3-----------7------3-----------7------|

Guitar 2 (not 100%) - first bar is an electronic part transcribed to guitar
e|------4x-------------------------|--------------|----------|-------------------------------13/15-13-12~-|
B|-----------3-------3---------4-3-|-(some---/5~--|-8h10p8---|--------------------------------------------|
G|-5-2---2-5-----2-5-----2-5-2-----|-weird--------|--------9-|-/5~--/7~--/9*~-12~-10~-9~---10-------------|
D|-----5-------5-------5-----------|-effects------|----------|--------------------------------------------|
A|---------------------------------|-here)--------|----------|--------------------------------------------|
D|---------------------------------|--------------|---4x-----|--------------------------------------------|
^ use wah ^
Repeat:
Intro/Verse
Chorus

Bridge:
e|-/12~----15~-12~------------------------------------------------------------------------------|
B|-----------------15~-----------12p10~~~~~~-------12~-------10-8-10~---13-15-13~--/16~---15~---|
G|------------------------12~---------12b~~~--10p9-------9-7------------------------------------|
D|----------------------------------------------------------------------------------------------|
A|----------------------------------------------------------------------------------------------|
D|----------------------------------------------------------------------------------------------|

e|-/12~----15~--19~-----------------------------------------------------------------------------|
B|-------------------15~---------12p10~~~~~~----10-12~---12-------------13-15-13~--/16~---15~---|
G|------------------------------------12b~~~-----------------14-12-14~--------------------------|
D|--------------------------14p12--------------------------12-----------------------------------|
A|----------------------------------------------------------------------------------------------|
D|----------------------------------------------------------------------------------------------|

e|--------------------------------------------------------------------------------------|
B|-13~---------------12-13-12-----------------------------------------------------------|
G|---------------------------12-14~-----12~-----7-9-75-5~-------7-5-/12~--10~--14~-----|
D|-------------------------------------------------------------------/13~--12~----------|
A|------------------------------------------------------------------------------12~-----|
D|--------------------------------------------------------------------------------------|

Buildup - electronic part transcribed to guitar (fades in at 4:18, not 100%):
e|---------------------------------|
B|-----------3-------3---------4-3-|
G|-5-2---2-5-----2-5-----2-5-2-----| 3x
D|-----5-------5-------5-----------|
A|---------------------------------|
D|---------------------------------|

Outro (4:59):

Guitar 1 (repeat till fadeout)
e|----------------------|
B|----------------------|
G|-------7--------------|
D|-3-----7--x8-7------6-|
A|-3--x8-5-----7--x15-6-|
D|-3-----------7------6-|

Guitar 2 (not 100%)
e|-17--17------------------------------------------------------------------13/15-13-12~-|
B|---17--17~----------------------------------------------------------------------------|
G|------------9~---10~---9~---(silence)-----/5~--7~--9~--10b12~r-9~-----10-------------|
D|--------------------------------------------------------------------------------------|
A|--------------------------------------------------------------------------------------|
D|--------------------------------------------------------------------------------------|

Guitar 2 cont'd
e|-----------------------------------------------------------------------|
B|------8-5--------------------------------------------------------------|
G|-/5~------7~---/9~---10~---9~------------------------------------------|
D|-----------------------------------------------------------------------|
A|-----------------------------------------------------------------------|
D|-----------------------------------------------------------------------|

LiveInternet