AllChordsTabs.com

Dance Gavin Dance - Dont Tell Dave (First Version) Chords and Tabs


Artists:
Chords and Tabs » D » Dance Gavin Dance - Dont Tell Dave (First Version)

Dance Gavin Dance - Dont Tell Dave (First Version)

Dance Gavin Dance - Dont Tell Dave (First Version) Chords / Tabs

Dance Gavin Dance - Don't Tell Dave First Version: chords and tabs for the song. Watch chords and tablatures for all songs of the singer (group) Dance Gavin Dance. Other chords and tabs for the "Don't Tell Dave" can find at the bottom of the page.

Don't tell Dave Bass Tab

My First Tab, let me know if there needs to be any improvements :)

0:04
G---(10)(10)(10)(10)(10)-6-8-6--------6-8-6--|          x4
D-----------------------------8-88888------8-|
A--------------------------------------------|
E--------------------------------------------|

0:19
G-------------------------------------------------|
D-------------------------------------------------|
A------------------------9-9-9-966--6-6h7---------|        x2
E---6-6-6-6-569999989(11)---------99-9------------|

0:33
G--------------------------------------------------| x5
D--------------------------------------------------|
A-----------------14-16-(13)(13)(13)---------14-16-|
E---2/12-2/12-2/12------------------2/12-2/12 -----|

0:55
G---------------------------------------------------|
D---------------------------------------------------|
A---------------------------------------------------|
E---(13)(13)(13)(13)(13)(13)(13)(13)(13)(13)(13)(13-|

0:58
G-----------------------------------------------------|    x4
D-----------(11)(13)-----------------(11)(13)---------|
A-------------------(11)---------------------(11------|
E---(13)(13)------------(13)(13)(13)------------------|

1:13
G--------------------|
D--------------------|
A--------------------|
E--------------------|

1:21
G--------------------------------------------------| x5
D--------------------------------------------------|
A-----------------14-16-(13)(13)(13)---------14-16-|
E---2/12-2/12-2/12------------------2/12-2/12 -----|

1:41
G---------------------------------------------------|
D---------------------------------------------------|
A---------------------------------------------------|
E---(13)(13)(13)(13)(13)(13)(13)(13)(13)(13)(13)(13-|

1:43
G-----------------------------------------------------|    x4
D-----------(11)(13)-----------------(11)(13)---------|
A-------------------(11)---------------------(11------|
E---(13)(13)------------(13)(13)(13)------------------|

1:59
G--------------------|
D--------------------|
A--------------------|
E--------------------|

2:06
G-------------------------------------------------|
D-------------------------------------------------|
A------------------------9-9-9-966--6-6h7---------|        Repeat till end
E---6-6-6-6-569999989(11)---------99-9------------|

LiveInternet