AllChordsTabs.com

The Prize Fighter Inferno - Run, Gunner Recall, Run! The Town Wants You Dead! (First Version) Chords and Tabs


Artists:
Chords and Tabs » T » The Prize Fighter Inferno - Run, Gunner Recall, Run! The Town Wants You Dead! (First Version)

The Prize Fighter Inferno - Run, Gunner Recall, Run! The Town Wants You Dead! (First Version)

The Prize Fighter Inferno - Run, Gunner Recall, Run! The Town Wants You Dead! (First Version) Chords / Tabs

The Prize Fighter Inferno - Run, Gunner Recall, Run! The Town Wants You Dead! First Version: chords and tabs for the song. Watch chords and tablatures for all songs of the singer (group) The Prize Fighter Inferno. Other chords and tabs for the "Run, Gunner Recall, Run! The Town Wants You Dead!" can find at the bottom of the page.

HERES THE CHORDS SCROLL DOWN FOR THE SOLO

Am -----------------------------------F
Tell them all the truth for no secret lies this time,

Am -----------------------------------F
Once upon a world way before your loss,

Am-------------------------- F
So look out I fear that they follow near,

--------------Am------------------------------------------ F
While in the courthouse Judge Kevin sentenced rope to neck,

E ----------------------------------F
They don't hear the serpent that burns your ear...

NC
Baby look out!

Am ---------------------------------------------------F
Leaving well enough alone is no choice of yours to make,

Am------------------------------------ F
Guilt says the proof this town has no room for you,

Am -------------------------- F
So look out I fear that they follow near,

Am ----------------------------------------------------F
For from the gallows you'll swing for all the kids to see,

E ----------------------------------F
They don't hear the serpent that burns your ear,

E -------------------------------------- F
Or the coward that sits alone in your head with itch...

NC
Baby look out!


SOLO (Follows Am F pattern.)


E ------------------------ F
Cause I'm so sorry that you could ever,

E --------------- F
I'm so sorry for you, you'll never love again

I'll probably post the rest once I finish it.


SOLO

**note**
its not 100% correct. about 75% of the way through, the guitars sound really blended so
don't know whats what. but this is the closest I've gotten.


h= Hammer on
p= Pull off
~= let ring
/= slide up
= slide down


e-------------------------------------------------------|
B-------------------------------------------------------|
G-12-14-16-12h14--10/12-14~-10-12--9-10---7-9--7h9------|
D---------------------------------------------------9-7-|
A-------------------------------------------------------|
E-------------------------------------------------------|

this is where it gets tricky

e---------------------------------------------------------|
B---------------------------------------------------------|
G---------------------------------------------------------|
D-5h7p5---5-----------------------------------------------|
A---------7---7-5-7p5-----5-5-5-7-5-----------------------|
E------------------------8--------------8-5---5-7-5-8~-5--|

this is where i think I'm wrong.

e-3/12-12p10p0-------3/12-12p10p0----12~--10-12--8-10--7-8--7h8p7p5--3-3-1h3/5---|
B------------------10~------------------10---------------------------------------|
G--------------------------------------------------------------------------------|
D--------------------------------------------------------------------------------|
A--------------------------------------------------------------------------------|
E--------------------------------------------------------------------------------|

e-----------------------------------------------------|
B-----------------------------------------------------|
G-7/9-9-9/10-10/12-12-12/14~-14/17-1716-1612-1210--|
D-7/9-9-9/10-10/12-12-12/14~--------------------------|
A-----------------------------------------------------|
E-----------------------------------------------------|

LiveInternet