AllChordsTabs.com

Pierce The Veil - Caraphernelia (Third Version) Chords and Tabs


Artists:
Chords and Tabs » P » Pierce The Veil - Caraphernelia (Third Version)

Pierce The Veil - Caraphernelia (Third Version)

Pierce The Veil - Caraphernelia (Third Version) Chords / Tabs

Pierce The Veil - Caraphernelia Third Version: chords and tabs for the song. Watch chords and tablatures for all songs of the singer (group) Pierce The Veil. Other chords and tabs for the "Caraphernelia" can find at the bottom of the page.

The other tab was okay, but i thought id give this a shot since some parts were missing.

Tuning = WHOLE STEP DOWN  DGCFAD
x= mute note
~ = vibrato
+  =  palm mute


Intro:

D|----------------------------------------------------------|
A|----------------------------------------------------------|
F|X-X-X-X-55-5-55-5-5-5-55-5-55-44-4-44-4-4-4-44-4-44---777-|
C|X-X-X-X-55-5-55-5-5-5-55-5-55-44-4-44-4-4-4-44-4-44---777-|
G|X-X-X-X-33-3-33-3-3-3-33-3-33-22-2-22-2-2-2-22-2-22---555-|
D|X-X-X-X---------------------------------------------------|

|-------------------------------------x-x-x-x-x-x-x-x-x-x-x-x-x-x-x-x|
|-------------------------------------x-x-x-x-x-x-x-x-x-x-x-x-x-x-x-x|
|-55-5-55-5-5-5-55-5-55-44-4-44-4-4-4-x-x-x-x-x-x-x-x-x-x-x-x-x-x-x-x|
|-55-5-55-5-5-5-55-5-55-44-4-44-4-4-4-x-x-x-x-x-x-x-x-x-x-x-x-x-x-x-x|
|-33-3-33-3-3-3-33-3-33-22-2-22-2-2-2-x-x-x-x-x-x-x-x-x-x-x-x-x-x-x-x|
|-------------------------------------x-x-x-x-x-x-x-x-x-x-x-x-x-x-x-x|




Verse 1
theres just
Sunshine...                       sumthin....
D|7777777777777777-6666666666666666-XXXXXXXXXXXXX-7777777777777777-|
A|8888888888888888-7777777777777777-XXXXXXXXXXXXX-8888888888888888-|
F|9999999999999999-8888888888888888-XXXXXXXXXXXXX-9999999999999999-|
C|9999999999999999-8888888888888888-XXXXXXXXXXXXX-9999999999999999-|
G|7777777777777777-6666666666666666-XXXXXXXXXXXXX-7777777777777777-|
D|7777777777777777-6666666666666666-XXXXXXXXXXXXX-7777777777777777-|


Licking...                             me...            honestly ..
|-6666666666666666-----------------------------------------7777777777777777|
|-7777777777777777--6--6-0000000000000000------------------8888888888888888|
|-8888888888888888--7--7-5555555555555555-4444444444444444-9999999999999999|
|-8888888888888888--8--8-5555555555555555-5555555555555555-9999999999999999|
|-6666666666666666--8--8-5555555555555555-0000000000000000-7777777777777777|
|-6666666666666666-----------------------------------------7777777777777777|



|-7-xx-----xx-----xx-----xx---------------------------------|
|-8-xx-----xx-----xx-----xx---------------------------------|
|-9-xx-----xx-----xx-----xx-5555555555555555--------------9-|
|-9-xx--16-xx--14-xx--12-xx-5555555555555555-9999999999---9-|let ring
|-7-xx--x--xx--x--xx--x--xx-5555555555555555-0000000000---0-|
|-7-xx--14-xx--12-xx--10-xx------------------9999999999---8-|



Chorus



|-7-7-7-7-7-7-7-7-7-7-7-7--------------------------|
|-8-8-8-8-8-8-8-8-8-8-8-8--------------------------|
|-9-9-9-9-9-9-9-9-9-9-9-9--7777-555555555555-5x-5x-|
|-9-9-9-9-9-9-9-9-9-9-9-9--7777-555555555555-5x-5x-|  2xs
|-7-7-7-7-7-7-7-7-7-7-7-7--7777-555555555555-5x-5x-|
|-7-7-7-7-7-7-7-7-7-7-7-7--------------------------|



2nd time through chorus, dont play the mute notes^^



D|-7-----------7--------7----------|
A|-8---------8---8------7-----7--7-|
F|-9-------9-------9----7----8---8-|
C|-9-----9-----------9--7--9-----9-|
G|-7---7----------------7----------|
D|-7-------------------------------|



verse 2
heartless...
D|-xxxxxxxxxx-7-xxxxxxxxxx----xxxxxxxxxx---xxxxxxxxxx---|
A|-xxxxxxxxxx-8-xxxxxxxxxx----xxxxxxxxxx---xxxxxxxxxx---|
F|-xxxxxxxxxx-9-xxxxxxxxxx----xxxxxxxxxx---xxxxxxxxxx---|
C|-xxxxxxxxxx-9-xxxxxxxxxx-12-xxxxxxxxxx-4-xxxxxxxxxx-4-|
G|-xxxxxxxxxx-7-xxxxxxxxxx-10-xxxxxxxxxx-6-xxxxxxxxxx-6-|
D|-xxxxxxxxxx-7-xxxxxxxxxx----xxxxxxxxxx---xxxxxxxxxx---|


D|-7-xxxxxxxxxx----xxxxxxxxxx---xxxxxxxxxx---|
A|-8-xxxxxxxxxx----xxxxxxxxxx---xxxxxxxxxx---|
F|-9-xxxxxxxxxx----xxxxxxxxxx---xxxxxxxxxx---|
C|-9-xxxxxxxxxx-12-xxxxxxxxxx-4-xxxxxxxxxx-4-|
G|-7-xxxxxxxxxx-10-xxxxxxxxxx-6-xxxxxxxxxx-6-|
D|-7-xxxxxxxxxx----xxxxxxxxxx---xxxxxxxxxx---|


Chorus 2



what if...
D|-7-7-7-7-7-7-7-7-7-7-7-7---------------------------|
A|-8-8-8-8-8-8-8-8-8-8-8-8---------------------------|
F|-9-9-9-9-9-9-9-9-9-9-9-9--7777--555555555555--5x-5x|   2nd time, no mute
C|-9-9-9-9-9-9-9-9-9-9-9-9--7777--555555555555--5x-5x|    notes
G|-7-7-7-7-7-7-7-7-7-7-7-7--7777--555555555555--5x-5x|
D|-7-7-7-7-7-7-7-7-7-7-7-7---------------------------|


Give her...                            ...i need
|-7-7-7-7-7-7-7-7-7-7----------------------------|
|-8-8-8-8-8-8-8-8-8-8----------------------------|
|-9-9-9-9-9-9-9-9-9-9--7777--555555555555--5x--5x|
|-9-9-9-9-9-9-9-9-9-9--7777--555555555555--5x--5x|
|-7-7-7-7-7-7-7-7-7-7--7777--555555555555--5x--5x|
|-7-7-7-7-7-7-7-7-7-7----------------------------|


|-7-7-7-7-7-7-7-7-7-7--------------------------------------------|
|-8-8-8-8-8-8-8-8-8-8--------------------------------------------|
|-9-9-9-9-9-9-9-9-9-9--7777--555555555555-44444------------------|
|-9-9-9-9-9-9-9-9-9-9--7777--555555555555-00000--15-15-15-15--11-|
|-7-7-7-7-7-7-7-7-7-7--7777--555555555555-22222--14-14-14-14--9--|
|-7-7-7-7-7-7-7-7-7-7--------------------------------------------|



D|-77-7-77-7-7-7-77-7--77--55555--77-55-55-55--|
A|-88-8-88-8-8-8-88-8--77--55555--55-55-88-77--|
F|-99-9-99-9-9-9-99-9--77--55555--55-55-55-55--|
C|-99-9-99-9-9-9-99-9--77--55555--55-55-55-55--|
G|-77-7-77-7-7-7-77-7--77--55555--55-55-55-55--|
D|-77-7-77-7-7-7-77-7--77--55555--55-55-55-55--|



|-77-7-77-7-7-7-77-7--777---------------------------------------|
|-88-8-88-8-8-8-88-8--777---------------------------------------|
|-99-9-99-9-9-9-99-9--777--55-5-55-5-5-5-55-5-55-5-5-5--000000-0|
|-99-9-99-9-9-9-99-9--777--55-5-55-5-5-5-55-5-55-5-5-5--555555-0|
|-77-7-77-7-7-7-77-7--777--55-5-55-5-5-5-55-5-55-5-5-5--555555-9|
|-77-7-77-7-7-7-77-7--777---------------------------------------|


(pause)
burn ur name
|---------------------------7777777777777777------------------|
|---------------------------8888888888888888------------------|
|-555555555555555--5x--5x---9999999999999999-7777--5555555555-|
|-555555555555555--5x--5x---9999999999999999-7777--5555555555-|
|-555555555555555--5x--5x---7777777777777777-7777--5555555555-|
|---------------------------7777777777777777------------------|



hole..
|-77---77----7------------|
|-88---88----8------------|
|-99---99----9-7-55---55--|
|-99---99----9-7-55---55--|
|-77---77----7-7-55---55--|
|-77---77----7------------|


|-77777777-----------------------777777777-777-555555-777-555-555-555|
|-88888888-----------------------888888888-777-555555-555-555-888-777|
|-99999999--7777--5555555555-----999999999-777-555555-555-555-555-555|
|-99999999--7777--5555555555-----999999999-777-555555-555-555-555-555|
|-77777777--7777--5555555555-----777777777-777-555555-555-555-555-555|
|-77777777-----------------------777777777---------------------------|
** ** **  **  ** **  *   *   *   *




|-777777777--777--5--7--5--5---|
|-888888888--777--5--5--8--7~~2|
|-999999999--777--5--5--5--5--2|
|-999999999--777--5--5--5--5--2|
|-777777777--777--5--5--5--5---|
|-777777777--------------------|
** ** **   **



-------the amount of times you strum the chord might be a little off, so use this vid to
get the strumming pattern



And i know that some of the chords dont match up with what he plays, but theyre, close
to the sound and a little easier to play. BTW first tab so all crticism is welcome =)

LiveInternet