AllChordsTabs.com

Dance Gavin Dance - Eagle Vs Crows (First Version) Chords and Tabs


Artists:
Chords and Tabs » D » Dance Gavin Dance - Eagle Vs Crows (First Version)

Dance Gavin Dance - Eagle Vs Crows (First Version)

Dance Gavin Dance - Eagle Vs Crows (First Version) Chords / Tabs

Dance Gavin Dance - Eagle Vs Crows First Version: chords and tabs for the song. Watch chords and tablatures for all songs of the singer (group) Dance Gavin Dance. Other chords and tabs for the "Eagle Vs Crows " can find at the bottom of the page.

Tuning: Standard

e|-------------------|
B|-------------------|
G|--6-6-6------------|
D|--6-6-6-------6~---|
A|--4-4-4-4-4-4-6~---|
E|--------6-6-6-4~---|

0:03
e|-------------666---------6/1---------------666------------------|
B|--------------------------------------------------------7--7----|
G|-333---666---666---333---6/1---333---666---666---333--10-10-----|
D|-444---666---------444---------444---666---------444------------|
A|-666---------------------------666------------------------------|
E|----------------------------------------------------------------|


0:25
e|--14h16h18-16-14-------------------14h16h18-16-14----------------14h16h18-16---14----|
B|-----------------16-14-16---14-16----------------14h16h19-14--16-------------16--14--|
G|-------------------------------------------------------------------------------------|
D|-------------------------------------------------------------------------------------|
A|-------------------------------------------------------------------------------------|
E|-------------------------------------------------------------------------------------|

0:47
e|---------------------------------------------------------------------------------------------------|
B|---------------------------------------11~---------------------------------------------------------|
G|--10~---------13~------10~---------------------10~---------13~-------10-10--10-10------------------|
D|--------13~--------------------13~--------------------13~-------------------------11-11--11-11--11-|
A|---------------------------------------------------------------------------------------------------|
E|---------------------------------------------------------------------------------------------------|


0:59
e|-------------9--7--6----------6--------9-x-999/11--------|
B|-----2h4-------------9---6h7x-7---6h7x-7-x-777----9------|
G|----4--------------------6--x-6---6--x-6-x-666-----------|
D|---2---------------------8--x-8---8--x-8-x-888-----------|
A|--4------------------------------------------------------|
E|---------------------------------------------------------|

e|-------------9--7--6----------6--------9-x-9--9-9-9-9-9--|
B|-----2h4-------------9---6h7x-7---6h7x-7-x-7--7-7-7-7-7--|
G|----4--------------------6--x-6---6--x-6-x-6--6-6-6-6-6--|
D|---2---------------------8--x-8---8--x-8-x-8--8-8-8-8-8--|
A|--4------------------------------------------------------|
E|---------------------------------------------------------|


1:21
e|--7-7-7-7-7-7-7-7-6-6-6-6-6-6-6-6--------------------9--9-9-9-9--|
B|--4-4-4-4-4-4-4-4-4-4-4-4-4-4-4-4--7-7-7-7-7-7-7-7-7-7--7-7-7-7--|
G|--4-4-4-4-4-4-4-4-4-4-4-4-4-4-4-4-10101010101010101010-10101010--|
D|-----------------------------------------------------------------|
A|-----------------------------------------------------------------|
E|-----------------------------------------------------------------|

e|-----------------------------------------------------------------|
B|-7--7----7--7--77------------------------------------------------|
G|-8--8----8--8--88---6-6-6-6-6-6-6-6-1010101010101010-------------|
D|-x--x----x--x--xx---x-x-x-x-x-x-x-x-x-x-x-x-x-x-x-x--------------|
A|-6--6----6--6--66---4-4-4-4-4-4-4-4-8-8-8-8-8-8-8-8--------------|
E|-----------------------------------------------------------------|

e|----------------------------------------------9--9--9-9-9--------|
B|-7-7-7-7-7-7-77-7-7-7-7-7-7-7-111111111111111111-11-111111-------|
G|-8-8-8-8-8-8-88-6-6-6-6-6-6-6-101010101010101010-10-101010-------|
D|-x-x-x-x-x-x-xx-x-x-x-x-x-x-x-x-x-x-x-x-x-x-x-x--x--x-x-x--------|
A|-6-6-6-6-6-6-66-6-6-6-6-6-6-6-9-9-9-9-9-9-9-9-9--9--9-9-9--------|
E|-----------------------------------------------------------------|

e|-----------------------------------------------------------------|
B|-7--7----7--7--77------------------------------------------------|
G|-8--8----8--8--88---6-6-6-6-6-6-6-6-1010101010101010-------------|
D|-x--x----x--x--xx---x-x-x-x-x-x-x-x-x-x-x-x-x-x-x-x--------------|
A|-6--6----6--6--66---4-4-4-4-4-4-4-4-8-8-8-8-8-8-8-8--------------|
E|-----------------------------------------------------------------|

1:44
e|------------------6--------6/1------------------6--------------------|
B|-----------4----6----------x/x------------4---6--------------7----7--|
G|-----3---4----6------------6/1------3---4---6-------------10--10-----|
D|---4---6-----------------3--------4---6---------------3--------------|
A|-6---------------------4--------6-------------------4----------------|
E|---------------------6----------------------------6------------------|

LiveInternet