AllChordsTabs.com

Bullet For My Valentine - No Easy Way Out (First Version) Chords and Tabs


Artists:
Chords and Tabs » B » Bullet For My Valentine - No Easy Way Out (First Version)

Bullet For My Valentine - No Easy Way Out (First Version)

Bullet For My Valentine - No Easy Way Out (First Version) Chords / Tabs

Bullet For My Valentine - No Easy Way Out First Version: chords and tabs for the song. Watch chords and tablatures for all songs of the singer (group) Bullet For My Valentine. Other chords and tabs for the "No Easy Way Out" can find at the bottom of the page.

I tabbed this by ear and the last solo I improvised for so do not send comments how its
because it wasn't ment to sound correct!

/ - Slide Up
 - Slide Down
h - Hammer On
p - Pull Off
BU - Bend Up
BD - Bend Down
~ - Vibrato
LR - Let Ring
x - Dead Note
+ - Harmonic

Tuning - ONE STEP DOWN

Intro x4
(Last time you let the last chord ring)
D|-------------------|
A|-------------------|
F|-------------------|
C|-7x-999x-555-/-9-7-|
G|-5x-777x-333-/-7-5-|
D|-------------------|

Fill
D|----------------| |-----|
A|----------------| |-----|
F|----------------| |-----|
C|-22-222--22-222-| |-222-| PALM MUTE THIS BIT
G|-22-222--22-222-| |-222-|
D|-00-000--00-000-| |-000-|


Verse RIFF 1 (Same Rhythm As Above)
D|--------------------------------| |-----|
A|--------------------------------| |-----|
F|---------77-777--55-555--44-444-| |-444-|
C|-22-222--77-777--55-555--44-444-| |-444-| PALM MUTE THIS BIT
G|-22-222--55-555--33-333--22-222-| |-222-|
D|-00-000-------------------------| |-----|


RIFF 2
D|--------------------|
A|--------------------|
F|------7LR--5LR--4LR-|
C|-2LR--7LR--5LR--4LR-|
G|-2LR--5LR--3LR--2LR-|
D|-0LR----------------|

Do Your Pickslide
(Scr*p pick across strings from strumming area down to fret 1)

Repeat Intro
Repeat Verse Riff 1 and Riff 2
PickSlide
Repeat Intro (But end on the second last chord)

SOLO
D|---------------------------------------13LR-12LR-|
A|-----------------------5-5~-/-8-10BU-8-----------|
F|-----------------7-5-4---------------------------|
C|-2LR-2-4-5-7-5-4---------------------------------|
G|-------------------------------------------------|
D|-------------------------------------------------|

D|-15BU-15BU-15BU-15BU---15BU-12-19BU-17----|
A|---------------------------------------19-|
F|------------------------------------------|
C|---------------------14-------------------|
G|------------------------------------------|
D|------------------------------------------|

Fill
D|---------|
A|---------|
F|---------|
C|-222-2LR-|
G|-222-2LR-|
D|-000-0LR-|

Reapeat Intro to the rest of the song for Rhythm Guitar

Lead guitar does intro then goes into the end solo

I improvised this solo but if you listen carefully
some bits fit in with the actual solo

End Solo (Improvised)Play Till End Of Song
D|------------------------------------------|
A|-8-8h10p8h10-12-8h10p8h10-12-10h12p10-8-6-|
F|------------------------------------------|
C|------------------------------------------|
G|------------------------------------------|
D|------------------------------------------|

D|------------------------------------------------|
A|-8-8h10p8h10-12-8h10p8h10-12-12BU-LR-12BU-12-10-|
F|------------------------------------------------|
C|------------------------------------------------|
G|------------------------------------------------|
D|------------------------------------------------|

You will be able to hear the end bits of each of these bars
on the actual song, so listen for where they are and
then speed up the to try get in time with it!

Good Luck!

LiveInternet