AllChordsTabs.com

Pierce The Veil - Beat It (First Version) Chords and Tabs


Artists:
Chords and Tabs » P » Pierce The Veil - Beat It (First Version)

Pierce The Veil - Beat It (First Version)

Pierce The Veil - Beat It (First Version) Chords / Tabs

Pierce The Veil - Beat It First Version: chords and tabs for the song. Watch chords and tablatures for all songs of the singer (group) Pierce The Veil. Other chords and tabs for the "Beat It" can find at the bottom of the page.

I have another account and i posted the intro tab of the song..

here's the whole of it(though not actually whole..^^)

Pierce The Veil


anyway just figure out how many times each part is played..

Intro:
Guitar1:(o:26)
|--------------------------------------------------------|
|--------------------------------------------------------|
|----------0------------------------------0--------------|
|------------2----4-2-0-0-------------------2-----4-2-0--|
|--------2------------------------------2----------------|
|-0----3-------------------------0----3------------------|

guitar2:comes in at(0:33)
|-----------------------------|
|-xxxx8--xx8/5-----xx7-xx7----|
|-xxxx7--xx7/4-----xx7-xx7-7--|
|--------------------------7--|
|-----------------------------|
|-----------------------------|


verse:
guitar1:(0:40?)
|---------------------------------------------------------|
|---------------------------------------------------------|
|-99-9---77-7---99-9---77-7----55-5---77-7----99-9---77-7-|
|-99-9---77-7---99-9---77-7----55-5---77-7----99-9---77-7-|
|-77-7---55-5---77-7---55-5----33-3---55-5----77-7---55-5-|
|---------------------------------------------------------|

then:
guitar2:
|---------------------------------------|
|---------------------------------------|
|---------------------------------------|
|------9---------9---------9---------9--|
|-9-12---12-9-12---12-9-12---12-9-12----|
|---------------------------------------|
.  . .  . .  . .  . .  . .  . .  . .

guitar1:
|----------------------------------------------------------|
|----------------------------------------------------------|
|-99-9---77-7---99-9---77-7----55-5---77-7----99-9---77-7--|
|-99-9---77-7---99-9---77-7----55-5---77-7----99-9---77-7--|
|----------------------------------------------------------|
|----------------------------------------------------------|

chorus:
|--------------------------------------------------------|
|--------------------------------------------------------|
|----------0------------------------------0--------------|
|------------2----4-2-0-0-------------------2-----4-2-0--|
|--------2------------------------------2----------------|
|-0----3-------------------------0----3------------------|


verse:
guitar1:
|---------------------------------------------------------|
|---------------------------------------------------------|
|-99-9---77-7---99-9---77-7----55-5---77-7----99-9---77-7-|
|-99-9---77-7---99-9---77-7----55-5---77-7----99-9---77-7-|
|-77-7---55-5---77-7---55-5----33-3---55-5----77-7---55-5-|
|---------------------------------------------------------|

then:
guitar2:
|---------------------------------------|
|---------------------------------------|
|---------------------------------------|
|------9---------9---------9---------9--|
|-9-12---12-9-12---12-9-12---12-9-12----|
|---------------------------------------|

on the 2nd time the stuff above is played, there's a part at the end of it like
this:(not quite sure)
|-----------19^-------------|
|---------------------------|
|---------------------------|
|---------------------------|
|---------------------------|
|---------------------------|

guitar1:
|----------------------------------------------------------|
|----------------------------------------------------------|
|-99-9---77-7---99-9---77-7----55-5---77-7----99-9---77-7--|
|-99-9---77-7---99-9---77-7----55-5---77-7----99-9---77-7--|
|----------------------------------------------------------|
|----------------------------------------------------------|

chorus:
|--------------------------------------------------------|
|--------------------------------------------------------|
|----------0------------------------------0--------------|
|------------2----4-2-0-0-------------------2-----4-2-0--|
|--------2------------------------------2----------------|
|-0----3-------------------------0----3------------------|

__________________________________Bridge____________________________________

guitar1:plays this soooooooo long..
|----------|
|----------|
|---99-9---|
|---99-9---|
|---77-7---|
|----------|

guitar2: at (2:26?)
|-----------------------------|
|-xxxx8--xx8/5-----xx8-xx8/5--|
|-xxxx7--xx7/4-----xx7-xx7/4--|
|-----------------------------|
|-----------------------------|
|-----------------------------|

bass does this sometimes:(2:16) & (2:24?)
|-----------------|
|-----------------|
|---5/slowly/7----|
|-----------------|

then:
guitar2:
(2:36)
|--------7bslowly--------|
|---------------------------|
|---------------------------|
|---------------------------|
|---------------------------|
|---------------------------|

(2:44?)
|----------------19^--------|
|---------------------------|
|----7/---------------------|
|----7/---------------------|
|----5/---------------------|
|---------------------------|
.

guitar 2 plays this before mini-solo:
|---------------------------|
|---------------------------|
|-0/9999999-7777-12-11/12---|
|-0/9999999-7777-12-11/12---|
|-0/7777777-5555-10-9-/10---|
|---------------------------|
.

mini-solo:
|--------------------------------------------
|--------8h10-12-10p8h10---------------------
|-9-12-9-----------------11h12p11-9-7--------
|-------------------------------------9------
|--------------------------------------------
|--------------------------------------------

continued...12
----12----10/12---12-10----------------|
-12----12---------------12-12p10p8h10--|
---------------------------------------|
---------------------------------------|
---------------------------------------|
---------------------------------------|

the tapped part:
|---------------------------| [harhar, i haven't figured out this part yet]
|---------------------------| [coz my guitar is sick. i just used acoustic]
|---------------------------| [guitar in tabbing this stuff out so im not ]
|---------------------------| [very positive of some parts of the solo and]
|---------------------------| [other parts having pinches, bends, and other]
|---------------------------| [stuff on the 12 fret higher parts.. sorry.^^]

play chorus again:
|--------------------------------------------------------|
|--------------------------------------------------------|
|----------0------------------------------0--------------|
|------------2----4-2-0-0-------------------2-----4-2-0--|
|--------2------------------------------2----------------|
|-0----3-------------------------0----3------------------|

end on:
|--------|
|--------|
|---99---|
|---99---|
|---77---|
|--------|

LiveInternet