AllChordsTabs.com

Anna Tsuchiya - Carry On (First Version) Chords and Tabs


Artists:
Chords and Tabs » A » Anna Tsuchiya - Carry On (First Version)

Anna Tsuchiya - Carry On (First Version)

Anna Tsuchiya - Carry On (First Version) Chords / Tabs

Anna Tsuchiya - Carry On First Version: chords and tabs for the song. Watch chords and tablatures for all songs of the singer (group) Anna Tsuchiya. Other chords and tabs for the "Carry On" can find at the bottom of the page.

Tuning: Drop D

~ = Let Ring
/ = Slide Up
 = Slide Down

|------------------------------------------------------|
|------------------------------------------------------|
|------------------------------------------------------|
|------------------------------------------------------|
|---9-9---7-7---10-10---9-9---9-9---7-7---10-10----9-9-|
|-7-----7-----7-------7-----7-----7-----7--------7-----|
|------------------------------------------------------|

|------------------------------------------------------|
|------------------------------------------------------|
|------------------------------------------------------|
|------------------------------------------------------|
|---9-9---7-7---10-10---9-9---9-9---7-7---10-10----9-9-|
|-7-----7-----7-------7-----7-----7-----7--------7-----|
|------------------------------------------------------|
My father took me to this  sacred place...

|---------------------------|
|---------------------------|
|---------------------------|
|---------------------------|
|---9-9---7-7---10-10---9-9-|
|-7-----7-----7-------7-----|
|---------------------------|
I grasped his hand and asked...

|--------------------------------|
|--------------------------------|
|--------------------------------|
|---9---9-9-9-9-7-7-7------------|
|-7---7---------------10-10-10-7-|
|--------------------------------|
Who is controlling this world right now?

|----------------------------------------------------|
|----------------------------------------------------|
|----------------------------------------------------|
|----------------------------------------------------|
|---9-9---7-7---10-10---9-9---9-9---7-7---10-10----9-|
|-7-----7-----7-------7-----7-----7-----7--------7---|
|----------------------------------------------------|

|---------------------|
|---------------------|
|---------------------|
|---------------------|
|---------------------|
|---------------------|
And where is heaven?

|------------------|
|---4----------3---|
|-2---2-5--2-5---5-|
|------------------| x3
|------------------|
|------------------|

|-------------------11-12-14-| (Not 100% sure about
|---4------12-14-15----------|  the last 6 notes here)
|-2---2-5--------------------|
|----------------------------|
|----------------------------|
|----------------------------|

|------------------|
|---4----------3---|
|-2---2-5--2-5---5-|
|------------------| x3
|------------------|
|------------------|

|-----------------------|
|---4-----4-2---2-------|
|-2---2-5-----5---5-4-2-|
|-----------------------|
|-----------------------|
|-----------------------|

|------------------|
|---4----------3---|
|-2---2-5--2-5---5-|
|------------------| x3
|------------------|
|------------------|

|-----------------------|
|---4-----4-2---2-------|
|-2---2-5-----5---5-4-2-|
|-----------------------|
|-----------------------|
|-----------------------|

____________________________________________
BASS GUITAR                                 |
|--------------------------|                |
|------------------16-14---|                |
|-14-14--17--16--14--------|                |
|--------------------------|                |
When you are thrown into this world         |
they say you were born insane and why...    |
____________________________________________|


|-----------------------------|
|-----------------------------|
|-4--4---4-4-4---4--4---4-4-4-|
|-2--2---2-2-2---2--2---2-2-2-|x2
|-2--2---2-2-2---2--2---2-2-2-|
|-----------------------------|
In the world that gives me nothing...

|----------------------------|
|----------------------------|
|-5--5---5-5-5---5-5---5-5-5-|
|-5--5---5-5-5---5-5---5-5-5-|
|-3--3---3-3-3---3-3---3-3-3-|
|----------------------------|
Fight my loss of faith...

|----------------------------|
|----------------------------|
|-7--7---7-7-7---7--7--7-7-7-|
|-7--7---7-7-7---7--7--7-7-7-|
|-5--5---5-5-5---5--5--5-5-5-|
|----------------------------|
In my gaurded cage...

|-------14-------------|
|-14-12----14-13-------| PLayed as lead for the part that
|----------------12----| says "My gaurded cage"
|-------------------14-|
|----------------------|
|----------------------|

|-----------------------------|
|-----------------------------|
|-4--4---4-4-4---4--4---4-4-4-|
|-2--2---2-2-2---2--2---2-2-2-|x2
|-2--2---2-2-2---2--2---2-2-2-|
|-----------------------------|
I am broken like an arrow...

|-----------------------------|
|-----------------------------|
|-5--5---5-5-5---5--5---5-5-5-|
|-5--5---5-5-5---5--5---5-5-5-|
|-3--3---3-3-3---3--3---3-3-3-|
|-----------------------------|
Constant are the wars...

|-----------------------------|
|-----------------------------|
|-7--7---7-7-7---7--7---7-7-7-|
|-7--7---7-7-7---7--7---7-7-7-|
|-5--5---5-5-5---5--5---5-5-5-|
|-----------------------------|
We won't turn away...

|-------14-------------|
|-14-12----14-13-------| Played as lead for the part that
|----------------12----| Says "Won't turn away"
|-------------------14-|
|----------------------|
|----------------------|

|-------------------------------------|
|-------------------------------------|
|--5-5--5--5--5-5-5--5-5--5--5--5-5-5-|
|--5-5--5--5--5-5-5--5-5--5--5--5-5-5-|
|--3-3--3--3--3-3-3--3-3--3--3--3-3-3-|
|-------------------------------------|
Who should we scream at?...

|----------------------------------------|
|-------------------------------x-x-x-x--|
|--7-7--7--7--7-7-7--7-7--7--7--x-x-x-x--|
|--7-7--7--7--7-7-7--7-7--7--7--x-x-x-x--|
|--5-5--5--5--5-5-5--5-5--5--5--x-x-x-x--|
|----------------------------------------|
Who should we follow?...

|-------------------------------------|
|-------------------------------------|
|--5-5--5--5--5-5-5--5-5--5--5--5-5-5-|
|--5-5--5--5--5-5-5--5-5--5--3--5-5-5-|
|--3-3--3--3--3-3-3--3-3--3--3--3-3-3-|
|-------------------------------------|
Who is my savior?...

|--------------------|
|--------------------|
|--7-7--7--7--7-7-7--|
|--7-7--7--7--7-7-7--|
|--5-5--5--5--5-5-5--|
|--------------------|
Who doesn't turn...

|------------------|
|------------------|
|------------------|
|------------------|
|------------------|
|------------------|
His back when we need?...

|--------------------------------------------------------------------------|
|--------------------------------------------------------------------------|
|--4--4--4----4-4-4---5--5--5---5-5-5---7--7--7---7-7-7---9--9--9---9-9-9--|
|--2--2--2----2-2-2---5--5--5---5-5-5---5--5--5---5-5-5---7--7--7---7-7-7--|
|--2--2--2----2-2-2---3--3--3---3-3-3---5--5--5---5-5-5---7--7--7---7-7-7--|
|--2--2--2----2-2-2---------------------5--5--5---5-5-5---7--7--7---7-7-7--|
Why do we have to be sacraficed!?...

|-------------------------------------------------------------------------|
|-------------------------------------------------------------------------|
|--4--4--4----4-4-4---5--5--5---5-5-5---7--7--7---7-7-7---9--9--9---9-9---|
|--2--2--2----2-2-2---5--5--5---5-5-5---5--5--5---5-5-5---7--7--7---7-7---|
|--2--2--2----2-2-2---3--3--3---3-3-3---5--5--5---5-5-5---7--7--7---7-7---|
|--2--2--2----2-2-2---------------------5--5--5---5-5-5---7--7--7---7-7---|
Why do we have to?...

|---------------------------------------------------------------------|
|---------------------------------------------------------------------|
|--5-5---2-2-2--5--/7-7---7-5-12---2-2---2--2-2---5--2-2---2--2-2--5--|
|--5-5---2-5-2--5--/7-7---7-5-12---2-2---2--2-2---5--2-2---2--2-2--5--|
|--3-3---0-3-0--3--/5-5---5-3-10---0-0---0--0-0---3--0-0---0--0-0--3--|
|---------------------------------------------------------------------|
Cause we'll carry on...

|------------------------------------|
|------------------------------------|
|--7--7--7---7-7-7---9--9--9--9------|
|--7--7--7---7-7-7---9--9--9--9------|
|--5--5--5---5-5-5---7--7--7--7------|
|------------------------------------|
My memory will carry on...

|------------------|
|---4----------3---|
|-2---2-5--2-5---5-|
|------------------| x3
|------------------|
|------------------|

|-----------------------|
|---4-----4-2---2-------|
|-2---2-5-----5---5-4-2-|
|-----------------------|
|-----------------------|
|-----------------------|

|------------------|
|---4----------3---|
|-2---2-5--2-5---5-|
|------------------|x3
|------------------|
|------------------|

|-----------------------|
|---4-----4-2---2-------|
|-2---2-5-----5---5-4-2-|
|-----------------------|
|-----------------------|
|-----------------------|

|------------------|
|---4----------3---|
|-2---2-5--2-5---5-|
|------------------|x3
|------------------|
|------------------|

|----------------------|
|----------------------|
|--9--11---------------|
|----------9--11--12---|x3
|----------------------|
|----------------------|

|--------------------|
|--------11/17-16-12-|
|-/11-12-------------|
|--------------------|
|--------------------|
|--------------------|

|--14--15--17-15-14-----14--|
|--------------------17-----|
|---------------------------|
|---------------------------|X4
|---------------------------|
|---------------------------|
If there's nothing but survival...

|--14--15--19-15-14--14--15--|
|----------------------------|
|----------------------------|
|----------------------------|X4
|----------------------------|
|----------------------------|
This world is bleeding out...

|-------------------------------------|
|-------------------------------------|
|--5-5--5--5--5-5-5--5-5--5--5--5-5-5-|
|--5-5--5--5--5-5-5--5-5--5--5--5-5-5-|
|--3-3--3--3--3-3-3--3-3--3--3--3-3-3-|
|-------------------------------------|
Open your eyes now...

|----------------------------------------|
|-------------------------------x-x-x-x--|
|--7-7--7--7--7-7-7--7-7--7--7--x-x-x-x--|
|--7-7--7--7--7-7-7--7-7--7--7--x-x-x-x--|
|--5-5--5--5--5-5-5--5-5--5--5--x-x-x-x--|
|----------------------------------------|


|-3-3-3/5-5-5/7-7-7--7-8-7-/10-10-10/12-12-12/13-13-13/15-15-15-|
|-3-3-3/5-5-5/7-7-7--7-8-7-/10-10-10/12-12-12/13-13-13/15-15-15-| Played over the rhythm part
|---------------------------------------------------------------| When she says "Eyes now!"
|---------------------------------------------------------------|
|---------------------------------------------------------------|
|---------------------------------------------------------------|


|-------------------------------------|
|-------------------------------------|
|--5-5--5--5--5-5-5--5-5--5--5--5-5-5-|
|--5-5--5--5--5-5-5--5-5--5--5--5-5-5-|
|--3-3--3--3--3-3-3--3-3--3--3--3-3-3-|
|-------------------------------------|

|-------------------------------------|
|-------------------------------------|
|--7-7--7--7--7-7-7--7-7--7--7--7-7-7-|
|--7-7--7--7--7-7-7--7-7--7--7--7-7-7-|
|--5-5--5--5--5-5-5--5-5--5--5--5-5-5-|
|-------------------------------------|

|-------------------------------------|
|-------------------------------------|
|--5-5--5--5--5-5-5--5-5--5--5--5-5-5-|
|--5-5--5--5--5-5-5--5-5--5--5--5-5-5-|
|--3-3--3--3--3-3-3--3-3--3--3--3-3-3-|
|-------------------------------------|
Open your arms now...

|-------------------------------------|
|-------------------------------------|
|--7-7--7--7--7-7-7--7-7--7--7--7-7-7-|
|--7-7--7--7--7-7-7--7-7--7--7--7-7-7-|
|--5-5--5--5--5-5-5--5-5--5--5--5-5-5-|
|-------------------------------------|
Guns away...

|-------------------------------------|
|-------------------------------------|
|--5-5--5--5--5-5-5--5-5--5--5--5-5-5-|
|--5-5--5--5--5-5-5--5-5--5--5--5-5-5-|
|--3-3--3--3--3-3-3--3-3--3--3--3-3-3-|
|-------------------------------------|
Neveeer!...

|-3-3-3/5-5-5/7-7-7--7-8-7-/10-10-10/12-12/12/13-13-13/15-15-15-|
|-3-3-3/5-5-5/7-7-7--7-8-7-/10-10-10/12-12/12/13-13-13/15-15-15-| Played over the rhythm part
|---------------------------------------------------------------| when she says "Neveeer!"
|---------------------------------------------------------------|
|---------------------------------------------------------------|
|---------------------------------------------------------------|

|--------------------|
|--------------------|
|--7-7--7--7--7-7-7--|
|--7-7--7--7--7-7-7--|
|--5-5--5--5--5-5-5--|
|--------------------|
Control us...

|------------|
|------------|
|------------|
|--------9~--|
|-----7~-----|
|--7~--------|

|-------------|
|-------------|
|-------------|
|--------12~--|
|-----12~-----|
|--10~--------|

|------------|
|------------|
|------------|
|--------7~--|
|-----5~-----|
|--5~--------|

|------------|
|------------|
|------------|
|--------9~-- |
|-----7~-----|
|--7~--------|

|------------|
|------------|
|------------|
|--------9~--|
|-----7~-----|
|--7~--------|
Oh,oh oh,oh oh,oh oh...

|-------------|
|-------------|
|-------------|
|--------12~--|
|-----12~-----|
|--10~--------|

|------------|
|------------|
|------------|
|--------7~--|
|-----5~-----|
|--5~--------|
Oh,oh oh,oh oh,oh oh...

|------------|
|------------|
|------------|
|--------9~--|
|-----7~-----|
|--7~--------|

|-------------------------------------------|
|-------------------------------------------|
|-------------------------------------------|
|-------------------------------------------|
|-------------------------------------------|
|-------------------------------------------|
I'm not gonna let you love turn to hate...

|-------------------------------------------------------|
|-------------------------------------------------------|
|--5--5--5---5-5-5---7--7--7---7-7-7---9--9--9---9-9-9--|
|--5--5--5---5-5-5---5--5--5---5-5-5---7--7--7---7-7-7--|
|--3--3--3---3-3-3---5--5--5---5-5-5---7--7--7---7-7-7--|
|--------------------5--5--5---5-5-5---7--7--7---7-7-7--|
If you say I'm lying...

|--------------------------------------------------------------------------|
|--------------------------------------------------------------------------|
|--4--4--4----4-4-4---5--5--5---5-5-5---7--7--7---7-7-7---9--9--9---9-9-9--|
|--2--2--2----2-2-2---5--5--5---5-5-5---5--5--5---5-5-5---7--7--7---7-7-7--|
|--2--2--2----2-2-2---3--3--3---3-3-3---5--5--5---5-5-5---7--7--7---7-7-7--|
|--2--2--2----2-2-2---------------------5--5--5---5-5-5---7--7--7---7-7-7--|
If you say I'm free...

|--------------------------------------------------------------------------|
|--------------------------------------------------------------------------|
|--4--4--4----4-4-4---5--5--5---5-5-5---7--7--7---7-7-7---9--9--9---9-9-9--|
|--2--2--2----2-2-2---5--5--5---5-5-5---5--5--5---5-5-5---7--7--7---7-7-7--|
|--2--2--2----2-2-2---3--3--3---3-3-3---5--5--5---5-5-5---7--7--7---7-7-7--|
|--2--2--2----2-2-2---------------------5--5--5---5-5-5---7--7--7---7-7-7--|
What I want is us...

|--------------------------------------------------------------------------|
|--------------------------------------------------------------------------|
|--4--4--4----4-4-4---5--5--5---5-5-5---7--7--7---7-7-7---9--9--9---9-9-9--|
|--2--2--2----2-2-2---5--5--5---5-5-5---5--5--5---5-5-5---7--7--7---7-7-7--|
|--2--2--2----2-2-2---3--3--3---3-3-3---5--5--5---5-5-5---7--7--7---7-7-7--|
|--2--2--2----2-2-2---------------------5--5--5---5-5-5---7--7--7---7-7-7--|
What I need is us...

|---------------------------------------------------------------------|
|---------------------------------------------------------------------|
|--5-5---2-2-2--5--/7-7---75/12---2-2---2--2-2---5--2-2---2--2-2--5--|
|--5-5---2-5-2--5--/7-7---75/12---2-2---2--2-2---5--2-2---2--2-2--5--|
|--3-3---0-3-0--3--/5-5---53/10---0-0---0--0-0---3--0-0---0--0-0--3--|
|---------------------------------------------------------------------|
Cause we'll carry on...

|---------------------------------------|
|---------------------------------------|
|--7--7--7---7-7-7---9--9--9---9-9-9----|
|--7--7--7---7-7-7---9--9--9---9-9-9----|
|--5--5--5---5-5-5---7--7--7---7-7-7----|
|---------------------------------------|

|------------------------------------|
|------------------------------------|
|--7--7--7---7-7-7---9--9--9--9------|
|--7--7--7---7-7-7---9--9--9--9------|
|--5--5--5---5-5-5---7--7--7--7------|
|------------------------------------|

|-----------------------------|
|-----------------------------|
|-4--4---4-4-4---4--4---4-4-4-|
|-2--2---2-2-2---2--2---2-2-2-|x2
|-2--2---2-2-2---2--2---2-2-2-|
|-----------------------------|

|----------------------------|
|----------------------------|
|-5--5---5-5-5---5-5---5-5-5-|
|-5--5---5-5-5---5-5---5-5-5-|
|-3--3---3-3-3---3-3---3-3-3-|
|----------------------------|

|----------------------------|
|----------------------------|
|-7--7---7-7-7---7--7--7-7-7-|
|-7--7---7-7-7---7--7--7-7-7-|
|-5--5---5-5-5---5--5--5-5-5-|
|----------------------------|

|--------14-------------|
|-/14-12----14-13-------|
|-----------------12----|
|--------------------14-|
|-----------------------|
|-----------------------|


|------|
|------|
|--4~--|
|--2~--|
|--2~--|
|--2~--|



And there you go , whole song note for note, chord for chord :D

This is only my second tab and I'm still learning how to incorporate
the tempo and time signature and what not, so please donn't judge me
too hard. Also please rate and comment, have a good day. Thank you.

LiveInternet