AllChordsTabs.com

Ayo - Sunny Bass (First Version) Chords and Tabs


Artists:
Chords and Tabs » A » Ayo - Sunny Bass (First Version)

Ayo - Sunny Bass (First Version)

Ayo - Sunny Bass (First Version) Chords / Tabs

Ayo - Sunny Bass First Version: chords and tabs for the song. Watch chords and tablatures for all songs of the singer (group) Ayo. Other chords and tabs for the "Sunny Bass" can find at the bottom of the page.

[Intro]
G|--------------------------------|--------------------------------|
D|--------------------------------|--------------------------------|
A|0---0---0---0---0---0---0---0---|0---0---0---0---0---0-----------|
E|--------------------------------|------------------------1---3---|

G|--------------------------------|--------------12-10-12---10-12--|
D|--------------------------------|-----------------------12-------|
A|0---0---0---0---0---0---0---0---|0-------------------------------|
E|--------------------------------|--------------------------------|

[Verse]
G|--------------------------------|--------------------------------|
D|--------------------------------|--------------------------------|
A|0---0---0---0---0---0---0---0---|3---3---3---3---3---3---3---3---|
E|--------------------------------|--------------------------------|

G|--------------------------------|--------------------------------|
D|3---3---3---3---3---3---3---3---|----0-------0---2---2-----------|
A|--------------------------------|3-------2-----------------------|
E|--------------------------------|------------------------0-------|

G|--------------------------------|--------------------------------|
D|--------------------------------|--------------------------------|
A|0---0---0---0---0---0---0---0---|3---3---3---3---3---3---3---3---|
E|--------------------------------|--------------------------------|

G|--------------------------------|--------------------------------|
D|3---3---3---3---3---3---3---3---|----------------2---2---2---2---|
A|--------------------------------|2---2---2---3-------------------|
E|--------------------------------|--------------------------------|

[Chorus]
G|--------------------------------|--------------------------------|
D|--------------------------------|--------------------------------|
A|0---0---0---0---0---0---0---0---|3---3---3---3---3---3---3---3---|
E|--------------------------------|--------------------------------|

G|--------------------------------|------------------------3---3---|
D|3---3---3---3---3---3---3---3---|--------0---0---3---3-----------|
A|--------------------------------|1---1---------------------------|
E|--------------------------------|--------------------------------|

G|--------------------------------|--------------------------------|
D|--------------------------------|2-------------------------------|
A|1---1---1---1---1---1---1---1---|--------------------------------|
E|--------------------------------|--------0-----------------------|

G|--------------------------------|--------------------------------|
D|--------------------------------|--------------------------------|
A|0---0---0---0---0---0---0---0---|0---0---0---0---0---0-----------|
E|--------------------------------|------------------------1---3---|

[Verse]
G|--------------------------------|--------------------------------|
D|--------------------------------|--------------------------------|
A|0---0---0---0---0---0---0---0---|3---3---3---3---3---3---3---3---|
E|--------------------------------|--------------------------------|

G|--------------------------------|--------------------------------|
D|3---3---3---3---3---3---3---3---|----0-------0---2---2-----------|
A|--------------------------------|3-------2-----------------------|
E|--------------------------------|------------------------0-------|

G|--------------------------------|--------------------------------|
D|--------------------------------|--------------------------------|
A|0---0---0---0---0---0---0---0---|3---3---3---3---3---3---3---3---|
E|--------------------------------|--------------------------------|

G|--------------------------------|--------------------------------|
D|3---3---3---3---3---3---3---3---|----------------2---2---2---2---|
A|--------------------------------|2---2---2---3-------------------|
E|--------------------------------|--------------------------------|

[Chorus]
G|--------------------------------|--------------------------------|
D|--------------------------------|--------------------------------|
A|0---0---0---0---0---0---0---0---|3---3---3---3---3---3---3---3---|
E|--------------------------------|--------------------------------|

G|--------------------------------|--------------------------------|
D|3---3---3---3---3---3---3---3---|--------------------------------|
A|--------------------------------|1---1---1---1---1---1---1---1---|
E|--------------------------------|--------------------------------|

G|--------------------------------|--------------------------------|
D|--------------------------------|2-------------------------------|
A|2---2---2---2---2---2---2---2---|--------------------------------|
E|--------------------------------|--------0-----------------------|

G|--------------------------------|--------------------------------|
D|--------------------------------|--------------------------------|
A|0---0---0---0---0---0---0---0---|0---0---0---0---0---0---0---0---|
E|--------------------------------|--------------------------------|

G|--------------------------------|--------------------------------|
D|--------------------------------|--------------------------------|
A|0---0---0---0---0---0---0---0---|0---0---0---0---0---0---0---0---|
E|--------------------------------|--------------------------------|

[Verse]
G|--------------------------------|--------------------------------|
D|--------------------------------|--------------------------------|
A|1---1---1---1---1---1---1---1---|4---4---4---4---4---4---4---4---|
E|--------------------------------|--------------------------------|

G|--------------------------------|--------------------------------|
D|4---4---4---4---4---4---4---4---|----1-------1---3---3-----------|
A|--------------------------------|4-------3-----------------------|
E|--------------------------------|------------------------1-------|

G|--------------------------------|--------------------------------|
D|--------------------------------|--------------------------------|
A|1---1---1---1---1---1---1---1---|4---4---4---4---4---4---4---4---|
E|--------------------------------|--------------------------------|

G|--------------------------------|--------------------------------|
D|4---4---4---4---4---4---4---4---|----------------3---3---3---3---|
A|--------------------------------|3---3---3---4-------------------|
E|--------------------------------|--------------------------------|

[Chorus]
G|--------------------------------|--------------------------------|
D|--------------------------------|--------------------------------|
A|1---1---1---1---1---1---1---1---|4---4---4---4---4---4---4---4---|
E|--------------------------------|--------------------------------|

G|--------------------------------|--------------------------------|
D|4---4---4---4---4---4---4---4---|--------------------------------|
A|--------------------------------|2---2---2---2---2---2---2---2---|
E|--------------------------------|--------------------------------|

G|--------------------------------|--------------------------------|
D|--------------------------------|3-------------------------------|
A|3---3---3---3---3---3---3---3---|--------------------------------|
E|--------------------------------|--------1-----------------------|

G|--------------------------------|------------------------6---3---|
D|--------------------------------|--------------------------------|
A|1---1---1---1---1---1---1---1---|--------------------------------|
E|--------------------------------|6---6---6---6---6---6-----------|

G|--------------------------------|----8---6-----------6-----------|
D|--------------------------------|------------8---6---------------|
A|1---1---1---1---1---1---1---1---|--------------------------------|
E|--------------------------------|6-----------------------6---6---|

[Verse]
G|--------------------------------|--------------------------------|
D|--------------------------------|0---0---0---0---0---0---0---0---|
A|2---2---2---2---2---2---2---2---|--------------------------------|
E|--------------------------------|--------------------------------|

G|0---0---0---0---0---0---0---0---|--------------------------------|
D|--------------------------------|----2-------2---4---4-----------|
A|--------------------------------|5-------4-----------------------|
E|--------------------------------|------------------------2-------|

G|--------------------------------|--------------------------------|
D|--------------------------------|0---0---0---0---0---0---0---0---|
A|2---2---2---2---2---2---2---2---|--------------------------------|
E|--------------------------------|--------------------------------|

G|0---0---0---0---0---0---0---0---|--------------------------------|
D|--------------------------------|----------------4---4---4---4---|
A|--------------------------------|4---4---4---5-------------------|
E|--------------------------------|--------------------------------|

[Chorus]
G|--------------------------------|--------------------------------|
D|------------------------2-------|0---0---0---0---0---0---0---0---|
A|2---2---2---2---2---2-------2---|--------------------------------|
E|--------------------------------|--------------------------------|

G|0---0---0---0---0---0---0---0---|----5-------5-------------------|
D|--------------------------------|--------------------------------|
A|--------------------------------|3-------3-------3---3---3---3---|
E|--------------------------------|--------------------------------|

G|--------------------------------|--------------------------------|
D|--------------------------------|4-------------------------------|
A|4---4---4---4---4---4---4---4---|--------------------------------|
E|--------------------------------|--------2-----------------------|

G|--------------------------------|--------------------------------|
D|--------------------------------|--------0---0---2---0---2---0---|
A|2---2---2---2---2---2---2---2---|2---2---------------------------|
E|--------------------------------|--------------------------------|

G|--------------------------------|--------------------------------|
D|--------------------------------|--------------------------------|
A|2---2---2---2---2---2---2---2---|2---2---2---2---2---2---2---2---|
E|--------------------------------|--------------------------------|

[Verse]
G|--------------------------------|--------------------------------|
D|--------------------------------|1---1---1---1---1---1---1---1---|
A|3---3---3---3---3---3---3---3---|--------------------------------|
E|--------------------------------|--------------------------------|

G|1---1---1---1---1---1---1---1---|----------------0---0-----------|
D|--------------------------------|1---3---0---3-------------------|
A|--------------------------------|--------------------------------|
E|--------------------------------|------------------------3-------|

G|--------------------------------|--------------------------------|
D|--------------------------------|1---1---1---1---1---1---1---1---|
A|3---3---3---3---3---3---3---3---|--------------------------------|
E|--------------------------------|--------------------------------|

G|1---1---1---1---1---1---1---1---|----------------0---0---0---0---|
D|--------------------------------|0---0---0---1-------------------|
A|--------------------------------|--------------------------------|
E|--------------------------------|--------------------------------|

[Chorus]
G|--------------------------------|--------------------------------|
D|--------------------------------|1---1---1---1---1---1---1---1---|
A|3---3---3---3---3---3---3---3---|--------------------------------|
E|--------------------------------|--------------------------------|

G|1---1---1---1---1---1---1---1---|--------------------------------|
D|--------------------------------|--------------------------------|
A|--------------------------------|4---4---4---4---4---4---4---4---|
E|--------------------------------|--------------------------------|

G|--------------------------------|0-------------------------------|
D|0---0---0---0---0---0---0---0---|--------------------------------|
A|--------------------------------|--------------------------------|
E|--------------------------------|--------3-----------------------|

[Outro]
G|--------------------------------|--------------------3---5---5---|
D|--------------------------------|----------------3-5-------------|
A|3---3---3---3---3---3---3---3---|3---3---3---3-------------------|
E|--------------------------------|--------------------------------|

G|--------------------------------|----------------5---3-----------|
D|--------------------------------|------------------------5---5---|
A|3---3---3---3---3---3---3---3---|3---3---3---3-------------------|
E|--------------------------------|--------------------------------|

G|--------------------------------|---------------10-8---8---10----|
D|--------------------------------|--------------------10------10--|
A|3---3---3---3---3---3---3---3---|--------------------------------|
E|--------------------------------|8---8---8---8-------------------|

G|--------------------------------|----------------------------0---|
D|--------------------------------|------------------------3-------|
A|3---3---3---3---3---3---3---3---|3---3---3---3---3---3-----------|
E|--------------------------------|--------------------------------|

G|--------------------------------|5---5---3-----------------------|
D|--------------------------------|------------5---3---------------|
A|3---3---3---3---3---3---3---3---|--------------------6-----6-----|
E|--------------------------------|--------------------------------|

G|--------------------------------|
D|1-------------------------------|
A|--------3-----------------------|
E|--------------------------------|

LiveInternet