AllChordsTabs.com

Eisbrecher - Adrenalin (First Version) Chords and Tabs


Artists:
Chords and Tabs » E » Eisbrecher - Adrenalin (First Version)

Eisbrecher - Adrenalin (First Version)

Eisbrecher - Adrenalin (First Version) Chords / Tabs

Eisbrecher - Adrenalin First Version: chords and tabs for the song. Watch chords and tablatures for all songs of the singer (group) Eisbrecher. Other chords and tabs for the "Adrenalin" can find at the bottom of the page.

Hey what's up this is my first tab ever.. I decided to make one 'cause there are not
Eisbrecher tabs here. I'm not the biggest fan ever but I really like their new album. I
a very little doubt with the final part of the chorus so if you figure it out better,

Tuning: Drop D

~ = Let ring
x = Mute note
P.M =  Palm mute

Intro - Verse
E|------------------------------------------------|
B|------------------------------------------------|
G|------------------------------------------------|
D|1---4-1-1-4-1---4-6-6----1---1-4-1-4-1---4-7-6--|
A|1---4-1-1-4-1---4-6-6----1---1-4-1-4-1---4-7-6--|
D|1---4-1-1-4-1---4-6-6----1---1-4-1-4-1---4-7-6--| first x2 with effects and then 3x
distortion

Pre-chorus
E|---------------------------------------------------|
B|---------------------------------------------------|
G|---------------------------------------------------|
D|3---6-3-3-6-3---6-6-6-6---3---6-3-3-6-3--3--3-1-1-2|
A|3---6-3-3-6-3---6-6-6-6---3---6-3-3-6-3--3--3-1-1-2|
D|3---6-3-3-6-3---6-6-6-6---3---6-3-3-6-3--3--3-1-1-2|

E|-------------------------------------------------------|
B|-------------------------------------------------------|
G|-------------------------------------------------------|
D|3---6-3-3-6-3---6-6-6-6-5-5-5-5-5-5-5-5-6-6-6-6-6-6-6-6|
A|3---6-3-3-6-3---6-6-6-6-5-5-5-5-5-5-5-5-6-6-6-6-6-6-6-6|
D|3---6-3-3-6-3---6-6-6-6-5-5-5-5-5-5-5-5-6-6-6-6-6-6-6-6|

Chorus (I put it this way to give you an idea, you can figure out the strumming very easily)
E|-----------------------------------------------|
B|-----------------------------------------------|
G|-----------------------------------------------|
D|-5--5--5-5-5--6--6-6-6--8-8-8------------------|
A|-5--5--5-5-5--6--6-6-6--8-8-8------------------|
D|-5--5--5-5-5--6--6-6-6--8-8-8------------------|

E|-----------------------------------------------|
B|-----------------------------------------------|
G|-----------------------------------------------|
D|-5--5--5-5-5--6--6-6-6--3-3-3------------------|
A|-5--5--5-5-5--6--6-6-6--3-3-3------------------|
D|-5--5--5-5-5--6--6-6-6--3-3-3------------------|

E|-----------------------------------------------|
B|-----------------------------------------------|
G|-----------------------------------------------|
D|-5--5--5-5-5--6--6-6-6--8-8-8------------------|
A|-5--5--5-5-5--6--6-6-6--8-8-8------------------|
D|-5--5--5-5-5--6--6-6-6--8-8-8------------------|

E|-----------------------------------------------|
B|-----------------------------------------------|
G|-----------------------------------------------|
D|-4--4--4-4-4--2--2-2-2--3-3-3------------------|
A|-4--4--4-4-4--2--2-2-2--3-3-3------------------|
D|-4--4--4-4-4--2--2-2-2--3-3-3------------------| X2
|--I have a little doubt with this part--|

Verse
Pre Chorus
Chorus

Bridge

E|-----------------------------------------------|
B|-----------------------------------------------|
G|-----------------------------------------------|
D|6~-5~-6~-5~--6-6--6-6--6--5-5--5-5--5----------|
A|6~-5~-6~-5~--6-6--6-6--6--5-5--5-5--5----------|
D|6~-5~-6~-5~--6-6--6-6--6--5-5--5-5--5----------|

E|-----------------------------------------------|
B|-----------------------------------------------|
G|------------------7-7-7-8-8-------7-7-7-5-5----|
D|6-6--6-6--6--5-5--x-x-x-x-x--5-5--x-x-x-x-x----|
A|6-6--6-6--6--5-5--5-5-5-6-6--5-5--5-5-5-3-3----|
D|6-6--6-6--6--5-5-------------5-5---------------|

E|-----------------------------------------------|
B|-----------------------------------------------|
G|-----------------------------------------------|
D|6-6--6-6--6--5-5--5-5--5--6-6--6-6--6----------|
A|6-6--6-6--6--5-5--5-5--5--6-6--6-6--6----------|
D|6-6--6-6--6--5-5--5-5--5--6-6--6-6--6----------|

E|-----------------------------------------------|
B|-----------------------------------------------|
G|-----------------------------------------------|
D|5-5-5-5-5-5-5-5-5-5-5-5-5-5-5-5----------------|
A|5-5-5-5-5-5-5-5-5-5-5-5-5-5-5-5----------------|
D|5-5-5-5-5-5-5-5-5-5-5-5-5-5-5-5----------------|
P.M

Solo: Chorus
Then the chorus again

END

Unofficial tab by В© Eudis De Freitas

LiveInternet