AllChordsTabs.com

Texas In July - Show Some Pride (First Version) Chords and Tabs


Artists:
Chords and Tabs » T » Texas In July - Show Some Pride (First Version)

Texas In July - Show Some Pride (First Version)

Texas In July - Show Some Pride (First Version) Chords / Tabs

Texas In July - Show Some Pride First Version: chords and tabs for the song. Watch chords and tablatures for all songs of the singer (group) Texas In July. Other chords and tabs for the "Show Some Pride" can find at the bottom of the page.

Tuning:C, G, C, F, A, D
**SORRY FOR THE CLUTTER**


-Intro: 0:00 – 0:47

Lead Guitar
|-------------------------------------|
|----------------10-8----10-----------|
|---------9-10-9------10----10-9-7-9--| ONE TIME B4 THE RHYTHM KICKS IN
|-5s7---7-----------------------------|
|-----8-------------------------------|
|-------------------------------------|

Rhythm Guitar
|----------------|----|
|----------------|----|
|----------------|----| FIRST ONE STARTS ON 8 AND FOR THE REST IT REPEATS STARTING
|-8------10--3---|-0--| WITH THE OPEN THEN TO THE 8-10-3
|-8~-----10--3---|-0~-|
|-8------10--3---|-0--|



-Intro Part 2: 0:24 to Verse (New Rhythm Riff) Repeat a few times
|-----------------------|-----------------------|------------------------------|
|-----------------------|-----------------------|------------------------------|
|-----------x2----------|-----------------------|------------------------------|
|-0---------------------|-8---------------------|-10---------------------------|
|-0-00000-00-00-00000000|-8-88888-88-88-88888888|-10-1010101010-33-33-33333333-|
|-0-00000-00-00-00000000|-8-88888-88-88-88888888|-10-1010101010-33-33-33333333-|
PM  |------------------|    |------------------|   |-------------------------|



-Both Guitars: 0:47 -0:56
|------------------|
|------------------|
|------------------| Rhythm Plays This Twice
|-0-----8--10--3---| Lead Plays Riff Below 1 Time
|-0~----8~-10~-3~--| Before Rhythm Comes In
|-0-----8--10--3---|



-Verse
|--------------------------------|
|--------------------------------|
|--------------------------------|
|----3--------5---------8—-10—-3-| REPEAT A FEW TIMES
|-00---5-00-3---00-3h5—-8~-10~-3-|
|-00-----00-----00-3h5—-8--10--3-|
PM..      ..    ..



-AT 1:14:  This Is The Alternative Riff Until Breakdown
|-------------------------------------------------------|
|-------------------------------------------------------|
|-------------------------------------------------------|
|----3--------5---------8---10p8----------5---8p5-------|
|-00---5-00-3---00-3h5—-8-8------12p10p8--5-5-----8p7p5-|
|-00-----00-----00-3h5—-8-8---------------5-5-----------|
PM..      ..     ..        .                 .



-Right Before The Breakdown Is This
|------------------|
|------------------|
|------------------|
|------------------| Then A Drum Fill to Breakdown
|--00-00-00-00-00--|
|--00-00-00-00-00--|



-BREAKDOWN 1
|-------------------------------------------------------|
|-------------------------------------------------------|
|-------------------------------------------------------| FIGURE OUT THE TIMING AND
|-------------------------------------------------------| WHEN IT REPEATS.
|-00-00-00-0000-00-00-0000----00-00-00-00-00-00-0000-00-|
|-00-00-00-0000-00-00-0000----00-00-00-00-00-00-0000-00-|



-Near End of Breakdown, This is Alternative Pattern

|-------------------|-----------------------|
|----PLAY TWICE-----|-----------------------|
|-------------------|-----------------------|
|-------------------|--------------------5*-| Lead Guitar Plays Harmonic and Whammys 5
|-0-0-0---0-0-0--0--|--0-0-0---0-0-0--0-----|
|-1-1-1---1-1-1—-1--|--0-0-0---0-0-0--0-----|



-End Breakdown:

Guitar 1             Guitar 2
|----|               |----|
|----|               |----|
|-7~-|               |----|
|-7~-|               |-0~-|
|-5~-|               |-0~-|
|----|               |-0~-|



-Post-Breakdown Riff
|-----------------------------|------------------------------|
|-----------------------------|------------------------------|
|---------------------5-------|--------------5---------------|
|-------7-------8-7-8---8-7-8-|-------7--------8-7-5-5-8-7-5-|
|-5h8----8--------------------|-5h8----8---------------------|
|-----0----0000---------------|-----0----000-----------------|



-PALM MUTES INTO THIS RIFF ARE (7 5 3 7 5 3) ON THE TOP TWO STRINGS

|------------|
|------------|
|-4~--4~-3h4-| REPEAT UNTIL THE LEAD SOLO BEGINS. RHYTHYM PLAYS THE WHOLE TIME
|-4~--4~-4---| STRUMMING THE NOTES FREELY.
|-2~--2~-1---|
|-2~---------|



-Lead Solo
|-0h11h14-0h11h14-0h11h14-0h11h14-0h11h14--------------------------------------------|
|-----------------------------------------0h11h12-0h11h12-0-11-12-14-12-11-11h12p11--|
|----------------------------------------------------------------------------------12|
|------------------------------------------------------------------------------------|
|-----PLAY 4 TIMES THROUGH THEN BACK TO THE RIFF BEFORE------------------------------|
|------------------------------------------------------------------------------------|



-End Breakdown, Starts With Open Note
|---------------------------------------------|
|---------------------------------------------|
|---------------------------------------------| Figure Out the Timing and
|---------------------------------------------| How It Repeats
|-000000-00000000-00-00---000-0-00-0-00-00-00-|
|-000000-00000000-00-00---000-0-00-0-00-00-00-|

LiveInternet