AllChordsTabs.com

Mads Langer - Bowie And Champagne (First Version) Chords and Tabs


Artists:
Chords and Tabs » M » Mads Langer - Bowie And Champagne (First Version)

Mads Langer - Bowie And Champagne (First Version)

Mads Langer - Bowie And Champagne (First Version) Chords / Tabs

Mads Langer - Bowie And Champagne First Version: chords and tabs for the song. Watch chords and tablatures for all songs of the singer (group) Mads Langer. Other chords and tabs for the "Bowie And Champagne" can find at the bottom of the page.

I recently saw on Mads FB. profile where he did a little video of Bowie...

So i decided to listen to it MANY times and tab it to all of you guys...




***STANDARD TUNING***   ***FINGERPICKING***


iNTRO:

-------9------9-----9------10-----10------10p9-------9------9----------|
-----7------7-----7------7------7-------7----------7------7------------|
---9------9-----9------9------9-------9----------9------9--------------|
-0------0-----0------0------0-------0----------0------0----------------|
-----------------------------------------------------------------------|
-----------------------------------------------------------------------|


Verse:

There is no time, but the -   |   So i'm gonna leavethe future

presemt


-------9------9-----9------9-|------9-------9------9------9----|
-----7------7-----7------7---|----7-------7------7------7------|
---9------9-----9------9-----|--9-------9------9------9--------|
-0------0-----0------0-------|8-------8------8------8----------|
-----------------------------|---------------------------------|
-----------------------------|---------------------------------|


behind    (*make a slide*)     mmmhm...
-------0-----0---------0-----0-------0------0------0------0---|
-----7-----7---------2-----2-------7------7------2------2-----|
---7-----7---------2-----2-------7------7------2------2-------|
--------------------------------------------------------------|
--------------------------------------------------------------|
-7----7----------2-----2-------7------7------2------2---------|


***PLAY THE SAME AS BEFORE IN THIS VERSE***


There is no such thing as flying plesently into this "long stone blind" (?)

mmhm...


There is no one here to blame, so im gonna ask you to forget my name

Shame Shame Shame....


CHORUS:

She loves Bowie    |  And champagne  |  She dances slowly
--------0-----------|--------0--------|--------0----------------|
------3-------------|------5----------|------7------------------|
----4---------------|----6------------|----7--------------------|
--------------------|-----------------|-------------------------|
--------------------|-----------------|-------------------------|
--3-----------------|-5---------------|--7----------------------|

In the  |  Fast lane         Yeah...| She rarely shows up | at my door and
-------0--|--------0-----0-----0------|-------0-------------|-------0------|
-----3----|------3-----3-----3--------|-----3---------------|-----5--------|
---4------|----4-----4-----4----------|---4-----------------|---6----------|
----------|---------------------------|---------------------|--------------|
----------|---------------------------|---------------------|--------------|
-4--------|--3-----3-----3------------|-3-------------------|-5------------|


Ask me if   | I found what i was | Looking for  | Bowie    and Champagne
--------0---|------0-------------|-------0----0-|------0------------0-----|
------7-----|----3---------------|-----3----3---|----5------------7-------|
----7-------|---4----------------|---4----4-----|--6------------7---------|
------------|--------------------|--------------|-------------------------|
------------|--------------------|--------------|-------------------------|
--7---------|-4------------------|-3----3-------|5------------7-----------|


Continue fingerpicking as before

There is no time but the future your gonna dance your way into the light

mmhm....

Before you "holding your hand" into the eyes of an angle in the night

mmhm...

Illuminate the shadowland and painted portraits of everything i don't understand
shame shame yeah...

Chorus - She loves Bowie and Champagne, she dances slowly in the fast lane

She rarely shows up at my door, and ask me if i found what i was looking for Bowie and champgne


(This part he only says uhh.. so just listen to it and figure out the rhytm)

C-part:

-------0-----0------0-----0-------0------0-----0-----0----0-----0---0------|
-----7-----5------5-----3-------7------5-----5-----3----3-----0---0--------|
---7-----6------6-----4-------7------6-----6-----4----2-----2---2----------|
---------------------------------------------------------------------------|
---------------------------------------------------------------------------|
-7-----6------5----4--------7------6-----5----4----2-----2---2-------------|


Chorus

Ends with a strum


-----0------|
-----7------|
-----7------|
------------|
------------|
-----7------|

LiveInternet