AllChordsTabs.com

Kina Grannis - Memory (Second Version) Chords and Tabs


Artists:
Chords and Tabs » K » Kina Grannis - Memory (Second Version)

Kina Grannis - Memory (Second Version)

Kina Grannis - Memory (Second Version) Chords / Tabs

Kina Grannis - Memory Second Version: chords and tabs for the song. Watch chords and tablatures for all songs of the singer (group) Kina Grannis. Other chords and tabs for the "Memory" can find at the bottom of the page.

Intro/Verse:

e|-------------------------------------------------------------|
B|--------0----------------0--------------0-------------0------|
G|--0--------0------0--------0------0--------0-----0-------0---|
D|----3----------------0---------------0-------------0---------|
A|--3---3-----3----3/5---5----5----5/7---7----7----7---7----7--|
E|-------------------------------------------------------------|

e|-------------------------------------------------------------|
B|--------0----------------0--------------0------7~~~----------|
G|--0--------0------0--------0------0--------0-----------------|
D|----3----------------0---------------0-----------------------|
A|--3---3-----3----3/5---5----5----5/7---7----7----------------|
E|-------------------------------------------------------------|

get beneath the bed it's another attack
but when the monster turned man, you don't know how to react
and daddy named it the singing bridge in memory of the ghosts that lived here
my timing could not have been better,
she cried


Chorus:

e|-------3---------3-------2--------0-----0-------0-----0------|
B|-0-----0---------0-------0--------0-----0-------0-----0------|
G|---0------0--------0-------0--------0------0------0------0---|
D|-2---2------2----2---2---0---0-------------------------------|
A|----------------------------------3---3-----0---3---3------0-|
E|-------------------------------------------------------------|

although she's gone
although its over
a memory hangs on
a memory


as the dust settles and the smoke is rising
up about the clouds a dove is crying
I leave a trail of copper faces all around the town in different places
I'd like to think that they'll be happy
Or try


End:

e|-------3---------3------3/5-------0-----0-------0-----0------|
B|-0-----0---------0-------0--------0-----0-------0-----0------|
G|---0------0--------0-------0--------0------0------0------0---|
D|-2---2------2----2---2---0---0-------------------------------|
A|----------------------------------3---3-----0---3---3------0-|
E|-------------------------------------------------------------|

e|-------------------------------------------------------------|
B|--------0----------------0--------------0-------------0------|
G|--0--------0------0--------0------0--------0-----0-------0---|
D|----3----------------0---------------0-------------0---------|
A|--3---3-----3----3/5---5----5----5/7---7----7----7---7----7--|
E|-------------------------------------------------------------|

e|-------------------------------------------------------------|
B|--------0----------------0--------------0------7~~~----------|
G|--0--------0------0--------0------0--------0-----------------|
D|----3----------------0---------------0-----------------------|
A|--3---3-----3----3/5---5----5----5/7---7----7----------------|
E|-------------------------------------------------------------|

LiveInternet