AllChordsTabs.com

Kina Grannis - Memory (First Version) Chords and Tabs


Artists:
Chords and Tabs » K » Kina Grannis - Memory (First Version)

Kina Grannis - Memory (First Version)

Kina Grannis - Memory (First Version) Chords / Tabs

Kina Grannis - Memory First Version: chords and tabs for the song. Watch chords and tablatures for all songs of the singer (group) Kina Grannis. Other chords and tabs for the "Memory" can find at the bottom of the page.

-------------------------------------------------------------------------
MEMORY – Kina Grannis
-------------------------------------------------------------------------

Standard tuning
Capo on third fret!

This how I hear it, I think I got most of it. At least the intro and the
verse. The chorus I'm not so sure about, but it works. Have fun.

INTRO
Cmaj7        D6sus4        Em7/D
e|-----------------------------------------------------|
B|-------0-------------0-------------0-----------0-----|
G|-0-------0---0---------0---0---------0---0-------0---|
D|---0-------------0-------------0-----------0---------| continue same
A|-3---3-----3-3/5---5-----5-5/7---7-----7-7---7-----7-| pattern in the
E|-----------------------------------------------------| verse, chords
Cmaj7       D6sus4        Em7/D         Em9/D         change slightly
e|-----------------------------------------------------|
B|-------0-------------0-------------0-----7-----------| a similar pattern
G|-0-------0---0---------0---0---------0---------------| is also used in
D|---0-------------0-------------0---------------------| the chorus, with
A|-3---3-----3-3/5---5-----5-5/7---7-----7-------------| different chords
E|-----------------------------------------------------|

VERSE1
Cmaj7                    D6sus4
Get beneath the bed it's another attack
Em7/D
But when the monster turns man, you don't know how to react
Cmaj7              D6sus4
And daddy named it the singing bridge
Em7/D
in memory of the ghosts that lived here
Cmaj7  D6sus4  Em7/D    D6sus4     Cmaj7 D6sus4   Em7/D Em9/D
My timing could not have been better        she cried

CHORUS x2
Em      D6add4       Cmaj7            Em = xx2003
And although she's gone         D6add4 = xx0002
D6add4        Em                   Cmaj7 = x32000
Although it’s over
D6add4    Cmaj7              [after 2nd time straight into intro]
A memory hangs on
Em
A memory

[repeat intro]

VERSE2 (same as before)
As the dust settles and the smoke is rising
Up about the clouds a dove is crying
I leave a trail of copper faces all around the town in different places
I'd like to think that they'll be happy, or try

CHORUS x2 (same as before)
And although she's gone
Although it’s over
A memory hangs on
A memory

[repeat intro also in the end]

=======================================================================
Comment, rate, appreciate!

LiveInternet