AllChordsTabs.com

Eisbrecher - Leider (First Version) Chords and Tabs


Artists:
Chords and Tabs » E » Eisbrecher - Leider (First Version)

Eisbrecher - Leider (First Version)

Eisbrecher - Leider (First Version) Chords / Tabs

Eisbrecher - Leider First Version: chords and tabs for the song. Watch chords and tablatures for all songs of the singer (group) Eisbrecher. Other chords and tabs for the "Leider" can find at the bottom of the page.

RIFF/A
e||------------------------------------------|
B||------------------------------------------|
G||------------------------------------------|
D||------------------------------------------|
A||--1-1--1-1--1-1--1-1--1-1--1-1--1-1--1-1--|
D||--1-1--1-1--1-1--1-1--1-1--1-1--1-1--1-1--|
PM.............................]

RIFF/B
e||-----------------------------|
B||-----------------------------|
G||-----------------------------|
D||-----------------------------|
A||--1-1-1-1--1-1-1-1--1--1--1--|
D||--1-1-1-1--1-1-1-1--1--1--1--|
PM............]

RIFF/C
e||--------------------------------|
B||--------------------------------|
G||--------------------------------|
D||--3-3-3-3-3--3-3----------------|
A||--1-1-1-1-1--1-1-3-3-3-3-3-3-3--|
D||-----------------3-3-3-3-3-3-3--|

RIFF/D (isn't 100% correct)
e||------------------------------|-----------------|
B||------------------------------|-----------------|
G||------------------------------|-----------------|
D||------------------------------|-----------------|
A||--1/3-3-3-3--3-3--3-3-3-4--4--|--1/3-3-3-3--3-3-|
D||--1/3-3-3-3--3-3--3-3-3-4--4--|--1/3-3-3-3--3-3-|
PM........................]    PM............]

RIFF/E
e||--------------------------------------|
B||--------------------------------------|
G||--------------------------------------|
D||--8--------3--------4--------1--------|
A||--8--------3--------4--------1--------|
D||--8--------3--------4--------1--------|

Ich schlag mir eine Wunde
die meinen Körper ziert
Bestreu sie sanft mit Salz
damit sie schöner wird
Ich lass mich selbst zur Ader
Г–ffne die Haut ganz sacht
GenieГџ den Kuss der Klinge
die mich zum Manne macht

[00:39]
Ich häng mich auf an dünnen Drähten -[RIFF/A]
Ich hab mich selbst darum gebeten -[RIFF/A]
Ich tu mir leid so leid -[RIFF/B]
Ich tu mir leid so leid -[RIFF/C]

[00:58]
Ich fГјrcht mich nicht vorm schwarzen Mann -[RIFF/D]
weil ich mir selbst was antun kann -[RIFF/D]

[01:07]
Ich muss                           
Ich muss mir wieder weh tun        |
Ich tu mir leid so leid            |-[RIFF/E]
Ich muss mir wieder weh tun        |
weil nur der Schmerz mich heilt    /

Ich liebe meine Narbe
in ihrer ganzen Pracht
Ein hГјbsches Souvenir
Hab ich mir selbst gemacht
Ich beiГџ mir auf die Zunge
und leide ohne Laut
Zieh mir das alte Messer
noch einmal durch die Haut

Doch wenn ich mich im Spiegel seh
tut mir mein kleines Herz so weh
Da ist noch Platz auf meiner Haut
Werd wieder tun wovor mir graut

Ich muss
Ich muss mir wieder weh tun
Ich tu mir leid so leid
Ich muss mir wieder weh tun
weil nur der Schmerz mir bleibt
Ich muss
Ich muss mir wieder weh tun
Ich tu mir selbst so leid
Ich muss
Ich muss mir wieder weh tun
Ich tu mir selbst ein Leid
Ich muss mir wieder weh tun
weil nur der Schmerz mir bleibt

| /  slide
| h  hammer-on
| p  pull-off
| ~  vibrato
| +  harmonic
| x  Mute note

LiveInternet